Oops, an error
Loading. Please wait.

Before Your Very Eyes bass

version 1
version 1

Whole song

Interactive

3,666 views 3 this week
3 commentsread comments
1 2 3 4 5
x 4
add to favorites
×
Save as Personal and add changes to this tab that will be seen only by you. Learn more ›
×
You can save this tab as Personal to edit and correct it or add notes. All changes will be seen only by you. Learn more »
launch autoscroll
font size
0
reset
guitar tuner
edit
Autoscroll
slow
fast
+/-
esc
set tempo
stop
Author
Difficulty
-----------------------------------------------------------------
Atoms for Peace - Before Your Very Eyes...
-----------------------------------------------------------------

Tabbed By: Dennis Metin
e-mail: info@dmetin.com

Tuning: standard tuning

Main Riff (Intro/Verse)(0:40)
G|88-------88-------77-------77--------1212----------------------|
D|---------------------------------------------------------------|
A|--6-6-66---6-5-55---5-5-55---5---------------------------------|
E|-------------------------------10-10-----10-10-10--------------|

G|1212---------1010---------1010---------1212--------------------|
D|---------------------------------------------------------------|
A|---------------------------------------------------------------|
E|----10-10-10-----10-10-10-----10-10-10-----10-10-10------------|

G|1212---------1010---------1010---------------88------88--------|
D|---------------------------------------------------------------|
A|---------------------------------------6-6-6---6-6-66----------|
E|----10-10-10-----10-10-10-----10-10-10-------------------------|

G|------77-------77--------1212----------1212---------1010-------|
D|---------------------------------------------------------------|
A|6-5-55---5-5-55---5--------------------------------------------|
E|--------------------10-10-----10-10-10-----10-10-10------------|

G|---------1010---------1212---------1212------------------------|
D|---------------------------------------------------------------|
A|---------------------------------------------------------------|
E|10-10-10-----10-10-10-----10-10-10-----------------------------|

Change on (2:19)

G|---------------------------------------------------------------|
D|---------------------------------------------------------------|
A|6--6--6--6-6/8-5--5--5--5--6--6--6--6-6/8--5--5--5--5----------|
E|---------------------------------------------------------------|

G|---------------------------------------------------------------|
D|---------------------------------------------------------------|
A|3--3--3--3--5--5--5--5--3--3--3--3--3--3--3--3-----------------|
E|---------------------------------------------------------------|

G|---------------------------------------------------------------|
D|---------------------------------------------------------------|
A|6--6--6--6-6/8-5--5--5--5--6--6--6--6-6/8--5--5--5--5----------|
E|---------------------------------------------------------------|

G|---------------------------------------------------------------|
D|---------------------------------------------------------------|
A|3--3--3--3--5--5--5--5--3--3--3--3--1--1--1--1-----------------|
E|---------------------------------------------------------------|

G|---------------------------------------------------------------|
D|---------------------------------------------------------------|
A|5--5--5--5--1--1--1--1--5--5--5--5--1--1--1--1--5--5--5--5-----|
E|---------------------------------------------------------------|

G|---------------------------------------------------------------|
D|---------------------------------------------------------------|
A|8--8--8--8--10--10--10--10--8--8--8--8--10--10--10--10---------|
E|---------------------------------------------------------------|

G|---------------------------------------------------------------|
D|---------------------------------------------------------------|
A|8--8--8--8--6--6--6--6--5--5--5--5-----------------------------|
E|---------------------------------------------------------------|

The next section isn't Flea's bass, but I tabbed it out.(4:08)

G|---------------------------------------------------------------|
D|---------------------------------------------------------------|
A|---------------------------------------------------------------|
E|3-3-33-3-33-3-3/6-6-6/10-10-1010-10-1010-10-1010-10------------|

G|---------------------------------------------------------------|
D|---------------------------------------------------------------|
A|---------------------------------------------------------------|
E|3-3-33-3-33-3-3/6-6-6/10-10-1010-10-1010-10-1010-10------------|

G|---------------------------------------------------------------|
D|---------------------------------------------------------------|
A|---------------------------------------------------------------|
E|11-11-1111-11-1111-11-11-13-13-13-10-10-1010-10-1010-10-1010-10|

G|---------------------------------------------------------------|
D|---------------------------------------------------------------|
A|---------------------------------------------------------------|
E|11-11-1111-11-1111-11-11-13-13-13-8-8-88-8-88-8-88-8-----------|

Repeat that, after that section comes the outro line.

G|---------------------------------------------------------------|
D|---------------------------------------------------------------|
A|---------------------------------------------------------------|
E|11-11-1111-11-1111-11-11-13-13-13-8-8-88-8-88-8-88-8--15~------|


| / slide up
| \ slide down
| h hammer-on
| p pull-off
| ~ vibrato
| + harmonic
| x Mute note
Suggest correction
Creating personal tab
Creating personal tab
You can edit any tab online and save it as your Personal.

You can edit, replace or remove any tab part or add personal notes – all changes will be seen only by you.

Personal tabs can be accessed anytime from any device, even offline.
Learn more »
comments
print report bad tab
3 comments total.
+1 reply
SuckMyBass 20 Oct 19, 2013 12:35 AM

I thought de bass was:

G|1212---------1010---------1010---------1212--------------------|
D|---------------------------------------------------------------|
A|----10-10-10-----8-8-8--------10-10-10-----8-8-8---------------|
E|---------------------------------------------------------------|

But I think you're right, I don't hear changes in the lower bass. Really great tab!

+1 reply
fleathebassis 83 Dec 22, 2013 01:20 AM

Amazing song, great tab! Thanks!

guest
You may want to rate the tab now too:
select rating
Wanna post a correction for this tab? Suggest correction