Oops, an error
Loading. Please wait.

Before Your Very Eyes Tab

version 1
version 1

Whole song

Interactive

13,739 views 36 this week
no commentswrite comment
1 2 3 4 5
x 12
add to favorites
launch autoscroll
font size
0
reset
how to read this tab
guitar tuner
×
Best way to learn
"Before Your Very Eyes"
Autoscroll
slow
fast
+/-
esc
set tempo
stop
Author
Difficulty
Tuning: Standard

(play this riffs 6x)

[Riff A]
e|----------------------------------------------------------|
B|---------------11-11--10--8-----------------11-11--10--8--|
G|----------------------------------------------------------|
D|----------------------------------------------------------|
A|--10-10--8h10------------------10-10--8h10----------------|
E|----------------------------------------------------------| 

[Riff B]
e|----------------------------------------------------------|
B|------------10-10--8--6--------------10---8---6-----------|
G|----------------------------------------------------------|
D|----------------------------------------------------------|
A|--8-8--6/8-----------------8-8--6/8-----------------------|
E|----------------------------------------------------------| 

[Riff A]
e|----------------------------------------------------------|
B|---------------11-11--10--8-----------------11-11--10--8--|
G|----------------------------------------------------------|
D|----------------------------------------------------------|
A|--10-10--8h10------------------10-10--8h10----------------|
E|----------------------------------------------------------| 

[Riff B]
e|----------------------------------------------------------|
B|------------10-10--8--6--------------10---8---6-----------|
G|----------------------------------------------------------|
D|----------------------------------------------------------|
A|--8-8--6/8-----------------8-8--6/8-----------------------|
E|----------------------------------------------------------| 

[Riff C]
e|----------------------------------------------------------|
B|------------8--6--4-h6---------------8--6--4-h6-----------|
G|----------------------------------------------------------|
D|----------------------------------------------------------|
A|--6-6--4/6-----------------6-6--4/6-----------------------|
E|----------------------------------------------------------| 

[Riff D]
e|----------------------------------------------------------|
B|------------6--5--3-h5---------------6--5--3-h5-----------|
G|----------------------------------------------------------|
D|----------------------------------------------------------|
A|--5-5--3h5-----------------5-5--3h5-----------------------|
E|----------------------------------------------------------|



************************************

| h  Hammer-on
| /  Slide up

************************************
Suggest correction
comments
print report bad tab
guest
You may want to rate the tab now too:
select rating
Wanna post a correction for this tab? Suggest correction