Oops, an error
Loading. Please wait.

Harrowdown Hill Live bass

1,059 views 1 this week
no commentswrite comment
1 2 3 4 5
1 last vote to show rating
add to favorites
×
Save as Personal and add changes to this tab that will be seen only by you. Learn more ›
×
You can save this tab as Personal to edit and correct it or add notes. All changes will be seen only by you. Learn more »
launch autoscroll
font size
0
reset
guitar tuner
edit
Autoscroll
slow
fast
+/-
esc
set tempo
stop
Author
Difficulty
-----------------------------------------------------------------
Atoms for Peace - Harrowdown Hill Live
-----------------------------------------------------------------

Tabbed By: Dennis Metin
e-mail: info@dmetin.com

Tuning: standard tuning

Note: It's a littlebit different than the Thom Yorke version and is played by Flea.
Tip: Slap the dead notes hard!

Main Riff (Intro/Verse)
G|-----X--77---77--6--------X-77--77--6--------------------------|
D|------------------7-5----------------7-5-----------------------|
A|-X-XX-X---XX---XX-----X-XX-x--xx--XX---------------------------|
E|---------------------------------------------------------------|
   T TTPT PPTT PPTTPP P T TTPTPPTTPPTTPP P

Variation 1
G|-----7--77---77--6--------7-77--77--6--------------------------|
D|------------------7-5----------------7-5-----------------------|
A|-X-XX-X---XX---XX-----X-XX-x--xx--XX---------------------------|
E|---------------------------------------------------------------|
   T TTPT PPTT PPTTPP P T TTPTPPTTPPTTPP P

Variation 2
G|-----7--6h77---77--6--------7-6h77--77--6----------------------|
D|--------------------7-5------------------7-5-------------------|
A|-X-XX-X-----XX---XX-----X-XX-x----xx--XX-----------------------|
E|---------------------------------------------------------------|
   T TTPT P  PTT PPTTPP P T TTPTP  PTTPPTTPP P

Variation 3
G|-----X--1212--1212--11-----------------------------------------|
D|----------------------12-10------------------------------------|
A|-X-XX-X-----XX----XX-------------------------------------------|
E|---------------------------------------------------------------|
   T TTPT P P TTP P TTP P  P

G|-----12--11h1212--1212--11-------------------------------------|
D|--------------------------12-10--------------------------------|
A|-X-XX--X--------XX----XX---------------------------------------|
E|---------------------------------------------------------------|
   T TTP T P    P TTP P TTP P  P

T = SLAP
P = POP

| / slide up
| \ slide down
| h hammer-on
| p pull-off
| ~ vibrato
| + harmonic
| x Mute note

            
            
Suggest correction
Creating personal tab
Creating personal tab
You can edit any tab online and save it as your Personal.

You can edit, replace or remove any tab part or add personal notes – all changes will be seen only by you.

Personal tabs can be accessed anytime from any device, even offline.
Learn more »
Give kudos to tab author, rate the tab!
1 2 3 4 5
comments
print report bad tab
guest
You may want to rate the tab now too:
select rating
Wanna post a correction for this tab? Suggest correction