Oops, an error
Loading. Please wait.

Day Of Daze Bass Tab

324 views 1 this week
no commentswrite comment
1 2 3 4 5
2 more votes to show rating
add to favorites
launch autoscroll
font size
0
reset
guitar tuner
Autoscroll
slow
fast
+/-
esc
set tempo
stop
Help us to improve Ultimate-Guitar.com Take our survey!
×
Difficulty
novice
                            DAY OF DAZE BASS TAB BY ATOMSHIP


TUNING: STANDARD EADG

INTRO/CHORUS
G|--------------------------------------|
D|--------------------------------------|
A|--3/5-5-5-1-1--1--3/5-5-5-1-1--1-1----|
E|--------------------------------------|


VERSE
G|----------------|
D|---3-5----3-5---|
A|----------------|
E|----------------|

PRECHORUS
G|-------------------------|
D|-------------------------|
A|--3-3-3-3-3-3--3/5-------|
E|-------------------------|

AFTER THE FIRST CHORUS PLAY THIS BEFORE GOING INTO THE 2ND VERSE
G|--------------|
D|----3-----3---|
A|--------------|
E|--------------|

BRIDGE
G|----------------------------------|
D|----------------------------------|
A|----------------------------------|
E|---3/5----5-5---3-3-1-1-0-0-------|


THIS IS THE PART WHERE HE SAYS
GET HER HEAD AS CLOSE TO THE FLOOR I FEEL SO ALIVE
G|------------------------------------|
D|------------------------------------|
A|--5-5-5--3-3-3--1-1-1--3-3-3--------| PLAY THIS X3 THEN PLAY
E|------------------------------------|


G|----------------------|
D|----------------------|
A|---5-5---5-5----5-5---|
E|----------------------|


OUTRO
G|-----------------------------------|
D|-----------------------------------|
A|-----------------------------------|
E|--5-5-----5-5-----5-5----5-5----5--|

ORDER
INTRO/CHORUS X2
VERSE X5
PRECHORUS X1
INTRO/CHORUS X2
PART RIGHT AFTER CHORUS X1
VERSE X4
PRECHORUS X1
INTRO/CHORUS X2
BRIDGE( NOT SURE HOW MANY TIMES JUST LISTEN FOR TIMING)
GET HER HEAD AS ........ X3
PART RIGHT AFTER THAT X1
OUTRO X2

THATS ABOUT IT,THIS SONG IS REALLY EASY TO PLAY. ATOMSHIP IS A KICK ASS BAND. THIS IS MY 
TAB SO PLEASE RATE IT.
Suggest correction
Give kudos to tab author, rate the tab!
1 2 3 4 5
comments
print report bad tab
guest
You may want to rate the tab now too:
select rating
Wanna post a correction for this tab? Suggest correction