Oops, an error
Loading. Please wait.

Down Here Tab

250 views 1 this week
3 commentsread comments
1 2 3 4 5
1 last vote to show rating
add to favorites
launch autoscroll
font size
0
reset
how to read this tab
guitar tuner
Autoscroll
slow
fast
+/-
esc
set tempo
stop
Help us to improve Ultimate-Guitar.com Take our survey!
×
Author
Hey, I watched them perform this song, and watched it over and over until I got the 
PERFECT. So, enjoy.... the best band ever! ;)

The song is made up of 4 chords....

3 0 2 3
0 0 3 3
0 0 2 2
0 2 0 0
2 2 0 0
3 0 0 0

Chorus 1:

--------------------------------0------------|
-------3-3------------3-3-------------3------|
-----0-----0--------0-----0-------0-----0----|
---2--------------2---------2-------2-----2--|
-3--------------3-------------3--------------|
---------------------------------------------|

Chorus 2:

-----------------3--------------|
-------0-0-------------0--------|
-----------0-------0-----0------|
-----0-------0-------0-----0----|
---2-----------2-------------2--|
-3------------------------------|
Suggest correction
Give kudos to tab author, rate the tab!
1 2 3 4 5
comments
print report bad tab
3 comments total.
0 reply
poisonthewell19 20 Mar 08, 2005 12:00 AM

down here?where did you find this song because its not on the cd and i haven't found it anywhere else.so please tell me where you found this

0 reply
ibanez3454 72 Jul 07, 2006 03:41 PM

if you have AOL you can get it here

http://aolsearch.aol.com/aol/audio?query=atomship&invocationType=audioTab

0 reply
ibanez3454 72 Jul 19, 2006 07:03 PM

--------------------------------0------------|
-------3-3-0----------3-3-0-----------3------|
-----0--------------0-------------0-----0----|
---2--------------2---------2-------2-----2--|
-3--------------3-------------3--------------|
---------------------------------------------|
Should be this

guest
You may want to rate the tab now too:
select rating
Wanna post a correction for this tab? Suggest correction