Oops, an error
Loading. Please wait.

Mothra Tab

version 3
version 3

Whole song

435 views 1 this week
1 commentread comment
1 2 3 4 5
2 more votes to show rating
add to favorites
launch autoscroll
font size
0
reset
how to read this tab
guitar tuner
Autoscroll
slow
fast
+/-
esc
set tempo
stop
Help us to improve Ultimate-Guitar.com Take our survey!
×
Author
Difficulty
Tuning
intermediate
C G C F A D
-------------------------------------------------------------------------------
                             Mothra - Atomship
-------------------------------------------------------------------------------
Tabbed by: Atomshipped
Email: nitsua@comcast.net

Tuning: Drop C (CGCFAD)

Although not the most technical, Mothra
is considered one of the fastest songs
written by Nathan Slade of Atomship.

Distortion and effects pedals help make
 this song the best it can be but it can
be played with distortion the whole time
and/or no effects just as well.

There's a few parts where I can't tell if
it's guitar or computer but I don't want to
 figure it out so I'll just call it computer, haha.

Feel free to email me with any questions
or feedback.

Intro
This uses some weird effects including delay, but they aren't needed.
D|------------------------------------------------------------------------||
A|------------------------------------------------------------------------||
F|------15---14----------15---12------------15---10----------15---14------||
C|-12---------------12---------------12-----------------12----------------||
G|------------------------------------------------------------------------||
C|------------------------------------------------------------------------||

This becomes more improvisation, I can't really tab it very well.
D|------------------------------------------------------------------------||
A|------------------------------------------------------------------------||
F|-----------10-12-14-10-10-15b15b15b15b-15b-----15-14--12\10-------------||
C|--12-10-12--------------------------------------------------10/12-12----||
G|------------------------------------------------------------------------||
C|------------------------------------------------------------------------||

D|------------------------------------------------------------------------||
A|------------------------------------------------------------------------||
F|-----15-14------15-12------15-10-----15-14------------------------------||
C|-12---------12---------12---------12------------------------------------||
G|------------------------------------------------------------------------||
C|------------------------------------------------------------------------||

D|------------------------------------------------------------------------||
A|-----15---------15---------11-------------------------------------------||
F|--------14---------12---------10-----15-14------------------------------||
C|--12--------12---------12---------12------------------------------------||
G|------------------------------------------------------------------------||
C|------------------------------------------------------------------------||

D|------------------------------------------------------------------------||
A|------------------------------------------------------------------------||
F|------------------------------------------------------------------------||
C|-0-0-12\1-0-0-33-11-----------------------------------------------------||
G|-0-0-12\1-0-0-33-11-----------------------------------------------------||
C|-0-0-12\1-0-0-33-11-----------------------------------------------------||
PM              .. ..
Play this four times.

D|------------------------------------------------------------------------||
A|------------------------------------------------------------------------||
F|------------------------------------------------------------------------||
C|------------------------------------------------------------------------||
G|------------------------------------------------------------------------||
C|-0--0--0--0--0--0--0--0-------------------------------------------------||

D|------------------------------------------------------------------------||
A|------------------------------------------------------------------------||
F|------------------------------------------------------------------------||
C|-0-0-12\1-0-0-33-11-----------------------------------------------------||
G|-0-0-12\1-0-0-33-11-----------------------------------------------------||
C|-0-0-12\1-0-0-33-11-----------------------------------------------------||
PM              .. ..
Play this twice.

D|------------------------------------------------------------------------||
A|------------------------------------------------------------------------||
F|------------------------------------------------------------------------||
C|------------------------------------------------------------------------||
G|------------------------------------------------------------------------||
C|-0--0--0--0--0--0--0--0-------------------------------------------------||

D|------------------------------------------------------------------------||
A|------------------------------------------------------------------------||
F|------------------------------------------------------------------------||
C|-0-0-12\1-0-0-33-11-----------------------------------------------------||
G|-0-0-12\1-0-0-33-11-----------------------------------------------------||
C|-0-0-12\1-0-0-33-11-----------------------------------------------------||
PM              .. ..
Play this twice.

D|------------------------------------------------------------------------||
A|------------------------------------------------------------------------||
F|------------------------------------------------------------------------||
C|------------------------------------------------------------------------||
G|------------------------------------------------------------------------||
C|-0--0--0--0--0--0--0--0-------------------------------------------------||

D|------------------------------------------------------------------------||
A|------------------------------------------------------------------------||
F|------------------------------------------------------------------------||
C|-0-0-12\1-0-0-33-11-----------------------------------------------------||
G|-0-0-12\1-0-0-33-11-----------------------------------------------------||
C|-0-0-12\1-0-0-33-11-----------------------------------------------------||
PM              .. ..
Play this four times.

Breakdown 1
D|------------------------------------------------------------------------||
A|------------------------------------------------------------------------||
F|--777----778866777----77886677----7788667b7b7b7b7b7b7b7b7---------------||
C|------------------------------------------------------------------------||
G|------555----------555---------555--------------------------------------||
C|------------------------------------------------------------------------||
PM  ... ............ ........... ..........................

D|------------------------------------------------------------------------||
A|------------------------------------------------------------------------||
F|--777----778866777----77886677----77886677------------------------------||
C|------------------------------------------------------------------------||
G|------555----------555---------555--------000000------------------------||
C|------------------------------------------000000------------------------||
PM  ... ............ ........... .................

D|------------------------------------------------------------------------||
A|------------------------------------------------------------------------||
F|--777----778866777----77886677----77886677------------------------------||
C|------------------------------------------------------------------------||
G|------555----------555---------555--------000000------------------------||
C|------------------------------------------000000------------------------||

D|------------------------------------------------------------------------||
A|------------------------------------------------------------------------||
F|------------------------------------------------------------------------||
C|-333-000-334422333-000-33442233-000-334422-000-333442233----------------||
G|-333-000-334422333-000-33442233-000-334422-000-333442233----------------||
C|-333-000-334422333-000-33442233-000-334422-000-333442233----------------||
PM ... ... ......... ... ........ ... ...... ... .........
D|------------------------------------------------------------------------||
A|------------------------------------------------------------------------||
F|------------------------------------------------------------------------||
C|-3300000334422330000033442233000003344223333333333----------------------||
G|-3300000334422330000033442233000003344223333333333----------------------||
C|-3300000334422330000033442233000003344223333333333----------------------||
PM ...................................slowly release

D|------------------------------------------------------------------------||
A|------------------------------------------------------------------------||
F|------------------------------------------------------------------------||
C|-0-0-12\1-0-0-33-11-----------------------------------------------------||
G|-0-0-12\1-0-0-33-11-----------------------------------------------------||
C|-0-0-12\1-0-0-33-11-----------------------------------------------------||
PM              .. ..
Play this four times.

D|------------------------------------------------------------------------||
A|------------------------------------------------------------------------||
F|------------------------------------------------------------------------||
C|------------------------------------------------------------------------||
G|-0--0--0--0--0--0--0--0-------------------------------------------------||
C|-0--0--0--0--0--0--0--0-------------------------------------------------||

D|------------------------------------------------------------------------||
A|------------------------------------------------------------------------||
F|-----15-14------15-12------15-10-----15-14------------------------------||
C|-12---------12---------12---------12------------------------------------||
G|------------------------------------------------------------------------||
C|------------------------------------------------------------------------||

D|------------------------------------------------------------------------||
A|-----15---------15---------11-------------------------------------------||
F|--------14---------12---------10-----15-14------------------------------||
C|--12--------12---------12---------12------------------------------------||
G|------------------------------------------------------------------------||
C|------------------------------------------------------------------------||

D|------------------------------------------------------------------------||
A|------------------------------------------------------------------------||
F|-----15-14------15-12------15-10-----15-14------------------------------||
C|-12---------12---------12---------12------------------------------------||
G|------------------------------------------------------------------------||
C|------------------------------------------------------------------------||

D|------------------------------------------------------------------------||
A|-----15---------15---------11-------------------------------------------||
F|--------14---------12---------10-----15-14------------------------------||
C|--12--------12---------12---------12------------------------------------||
G|------------------------------------------------------------------------||
C|------------------------------------------------------------------------||

D|------------------------------------------------------------------------||
A|------------------------------------------------------------------------||
F|------------------------------------------------------------------------||
C|-0-0-12\1-0-0-33-11-----------------------------------------------------||
G|-0-0-12\1-0-0-33-11-----------------------------------------------------||
C|-0-0-12\1-0-0-33-11-----------------------------------------------------||
PM              .. ..
Play this four times.

Breakdown 2
D|------------------------------------------------------------------------||
A|------------------------------------------------------------------------||
F|------------------------------------------------------------------------||
C|------5b------5b--------------------------------------------------------||
G|-00-0-3b-00-0-3b--------------------------------------------------------||
C|-00-0----00-0-----------------------------------------------------------||

D|------------------------------------------------------------------------||
A|------------------------------------------------------------------------||
F|------------------------------------------------------------------------||
C|-3300000334422330000033442233000003344223333333333----------------------||
G|-3300000334422330000033442233000003344223333333333----------------------||
C|-3300000334422330000033442233000003344223333333333----------------------||
PM .................................................

D|--------------------------------------------------------------------------||
A|--------------------------------------------------------------------------||
F|--------------------------------------------------------------------------||
C|-3300000334422330000033442233000003344223333333333-0----------------------||
G|-3300000334422330000033442233000003344223333333333-0----------------------||
C|-3300000334422330000033442233000003344223333333333-0----------------------||
PM ...................................slowly release

Outro
D|------------------------------------------------------------------------||
A|------------------------------------------------------------------------||
F|-----15-14------15-12------15-10-----15-14------------------------------||
C|-12---------12---------12---------12------------------------------------||
G|------------------------------------------------------------------------||
C|------------------------------------------------------------------------||

D|------------------------------------------------------------------------||
A|-----15---------15---------11-------------------------------------------||
F|--------14---------12---------10-----15-14b-----------------------------||
C|--12--------12---------12---------12------------------------------------||
G|------------------------------------------------------------------------||
C|------------------------------------------------------------------------||
Suggest correction
Give kudos to tab author, rate the tab!
1 2 3 4 5
comments
print report bad tab
1 comment total.
0 reply
Marcus 90 2,623 Aug 14, 2010 07:53 AM

best tab of Mothra yet, think you can make a guitar pro 5 version?

guest
You may want to rate the tab now too:
select rating
Wanna post a correction for this tab? Suggest correction