Oops, an error
Loading. Please wait.

Pencil Fight Tab

version 1
version 1

Whole song

Interactive

2,058 views 3 this week
2 commentsread comments
1 2 3 4 5
accurate
x 5
add to favorites
launch autoscroll
font size
0
reset
how to read this tab
guitar tuner
Autoscroll
slow
fast
+/-
esc
set tempo
stop
Help us to improve Ultimate-Guitar.com Take our survey!
×
Author
Atomship - Pencil Fight

Drop C

intro/verse
|-----------------------------------------------------|
|-----3---------3--------3-----------3----3-3h4p3-----|
|---2---------2--------2----------2-------------------|
|-0-----0-3------3-2------2---------------------------|
|--------------------------------3--------------------|
|-----------------------------------------------------|


"It's Just Time"
|-------------------------------------------------------|
|-------------------------------------------------------|
|----2---2--2--2--2--2--2-------------------------------|
|--0---0--0--0--0--0--0---------------------------------|
|-------------------------------------------------------|
|-------------------------------------------------------|

Chorus
|----------------------------------------------------------------------|
|----------------------------------------------------------------------|
|----------------------------------------------------------------------|
|-0-0-x-x-x-x--8-8-x-x-x-x-5-5--x-x-x-x-10-10-x-x-x-x-3-3-x-x-x-x------|
|-0-0-x-x-x-x--8-8-x-x-x-x-5-5--x-x-x-x-10-10-x-x-x-x-3-3-x-x-x-x------|
|-0-0-x-x-x-x--8-8-x-x-x-x-5-5--x-x-x-x-10-10-x-x-x-x-3-3-x-x-x-x------|
      * * * *      * * * *      * * * *       * * * *     * * * *

|-------------------------------------------------------|
|-------------------------------------------------------|
|-------------------------------------------------------|
|--5-5-x-x-x-x-0-0----------------------------------10)-|
|--5-5-x-x-x-x-0-0-(--------------------------------10)-|
|--5-5-x-x-x-x-0-0-(rapid pick scrape while holding 10)-|

interlude where he does the little rap thing.
|----------------------------------|
|----------------------------------|
|----------------------------------|
|----5h7p5-3----5h7p5-3------------|
|----------------------------------|
|-0-----------3--------------------|

outro
|------------------------------------------------------------------------|
|------------------------------------------------------------------------|
|------------------------------------------------------------------------|
|----------------------------------------------5/7-7-7-7-7-7-7-7/8-8-8-8-|
|-0-x-0-x-0-x-0-x-0--0-0-0-0-0-5-3-3-3-3-5-3-3-3/5-5-5-5-5-5-5-5/6-6-6-6-|
|-0-x-0-x-0-x-0-x-0--0-0-0-0-0-5-3-3-3-3-5-3-3---------------------------|
    *   *   *   *    *************************


This life spreads like cancer as nothing here is real.
Leave me here by the bus stop with my pencil made of steel.
So it's time. It's just time....
Well I'm not much for the classroom teacher teach me if you care.
I can't pay much attention with that ruler in your hand.
So it's just time.

Cause I'm thinkin' Pencil fight, here we are.
Pencil fight, break me down.

Well I'm not much for the schoolyard teacher catch me if you can.
Ya leave me here by the swing set with my pencil broke in hand.
Oh it's fine. Shattered shards of graphite as they're flying through the air.
I'll open eyes quite slowly with the splinters in my hair.
So it's time.

Cause I'm thinkin'. Pencil fight, here we are. Pencil fight, break me down.

It's just time, oh my, oh my.....

"In this world no one leaves alone.
For the only way we leave is in death and in death my friends ya leave with one thing 
that one thing is pride.
And pride throughout changes in time between the sky that you love to the ground that 
hate.
Pride between everything that once was your pride, can never die."

Pencil fight, here we are. Pencil fight, break me down.

Don't you see we have problems here? Problems here at my home.....
Suggest correction
comments
print report bad tab
2 comments total.
0 reply
jables23092 57 wrote on June 11 2006, 04:50 pm

nope, good try though

0 reply
:)trish(: 10 wrote on January 7 2007, 12:00 am

not 2 bad, dusnt sound right tho

guest
You may want to rate the tab now too:
select rating
Please do not post tabs as comments. Select "correction" instead!