Oops, an error
Loading. Please wait.

Pencil Fight Tab

version 2
version 2

Whole song

Interactive

1,104 views 1 this week
no commentswrite comment
1 2 3 4 5
1 last vote to show rating
add to favorites
launch autoscroll
font size
0
reset
how to read this tab
guitar tuner
Autoscroll
slow
fast
+/-
esc
set tempo
stop
Help us to improve Ultimate-Guitar.com Take our survey!
×
Author
Difficulty
Tuning
advanced
C G C F A D
-------------------------------------------------------------------------------
                             Pencil Fight - Atomship
-------------------------------------------------------------------------------
Tabbed by: Atomshipped
Email: nitsua@comcast.net

Tuning: Drop C (CGCFAD)

Intro
D|---------------------0---------------------------------------------------|
A|-----3-------3-------------3b3b3b----------------------------------------|
F|---2-------2-------2-----------------------------------------------------|
C|-0-----0-3-----3-2-----2-------------------------------------------------|
G|-------------------------3-----------------------------------------------|
C|-------------------------------------------------------------------------|

D|---------------------0---------------------------------------------------|
A|-----3-------3-----------------------------------------------------------|
F|---2-------2-------2-----------------------------------------------------|
C|-0-----0-3-----3-2-----2-------------------------------------------------|
G|-------------------------3-----------------------------------------------|
C|-------------------------------------------------------------------------|
Play three times.

D|-------------------------------------------------------------------------|
A|-------------------------------------------------------------------------|
F|---2---2---2---2---2---2---2---2-----------------------------------------|
C|-0---0---0---0---0---0---0---0-------------------------------------------|
G|-------------------------------------------------------------------------|
C|-------------------------------------------------------------------------|
PM .   .   .   .   .   .   .   .

Verse 1
D|---------------------0---------------------------------------------------|
A|-----3-------3-------------3b3b3b----------------------------------------|
F|---2-------2-------2-----------------------------------------------------|
C|-0-----0-3-----3-2-----2-------------------------------------------------|
G|-------------------------3-----------------------------------------------|
C|-------------------------------------------------------------------------|

D|---------------------0---------------------------------------------------|
A|-----3-------3-----------------------------------------------------------|
F|---2-------2-------2-----------------------------------------------------|
C|-0-----0-3-----3-2-----2-------------------------------------------------|
G|-------------------------3-----------------------------------------------|
C|-------------------------------------------------------------------------|
Play two times.

Chorus 1
Guitar 1
D|-------------------------------------------------------------------------|
A|-------------------------------------------------------------------------|
F|---------------------------------------5-5-------------------------------|
C|-0-0------8-8------5-5------10-10------3-3------5-55-55------------------|
G|-0-0-0000-8-8-0000-5-5-0000-10-10-0000-3-3-0000-5-55-55------------------|
C|-0-0-0000-8-8-0000-5-5-0000-10-10-0000-3-3-0000-5-55-55------------------|
PM     ....     ....     ....       ....     ....
D|-------------------------------------------------------------------------|
A|-------------------------------------------------------------------------|
F|-------------------------------------------------------------------------|
C|-12-12-12-12-12-15-15-15-15-15-17-17-17-17-10b---------------------------|
G|-------------------------------------------------------------------------|
C|-------------------------------------------------------------------------|
Played twice.

Guitar 2
D|-------------------------------------------------------------------------|
A|-------------------------------------------------------------------------|
F|-------------------------------------------------------------------------|
C|-0-0------8-8------5-5------10-10------3-3------5-55-55------------------|
G|-0-0-xxxx-8-8-xxxx-5-5-xxxx-10-10-xxxx-3-3-xxxx-5-55-55------------------|
C|-0-0-xxxx-8-8-xxxx-5-5-xxxx-10-10-xxxx-3-3-xxxx-5-55-55------------------|
PM     ....     ....     ....       ....     ....

D|------3+3+3+3+----------------------3+3+3+3+-----------------------------|
A|------3+3+3+3+----------------------3+3+3+3+-----------------------------|
F|------3+3+3+3+----------------------3+3+3+3+-----------------------------|
C|-0-0--3+3+3+3+--0-0------------0-0--3+3+3+3+--3b-------------------------|
G|-0-0--3+3+3+3+--0-0---5+5+3+3+-0-0--3+3+3+3+--3b-------------------------|
C|-0-0------------0-0---5+5+3+3+-0-0------------3b-------------------------|
PM . .            . .            . . 
Played twice. 
This part is pretty hard to tab. You can do rapid pick slides instead of the 
barred harmonics, but I find this much easier.

D|-------------------------------------------------------------------------|
A|-------------------------------------------------------------------------|
F|---2---2---2---2---2---2---2---2---2---2---2---2---2---2---2---2---------|
C|-0---0---0---0---0---0---0---0---0---0---0---0---0---0---0---0-----------|
G|-------------------------------------------------------------------------|
C|-------------------------------------------------------------------------|
PM .   .   .   .   .   .   .   .   .   .   .   .   .   .   .   .

Verse 2
D|---------------------0---------------------------------------------------|
A|-----3-------3-------------3b3b3b----------------------------------------|
F|---2-------2-------2-----------------------------------------------------|
C|-0-----0-3-----3-2-----2-------------------------------------------------|
G|-------------------------3-----------------------------------------------|
C|-------------------------------------------------------------------------|

D|---------------------0---------------------------------------------------|
A|-----3-------3-----------------------------------------------------------|
F|---2-------2-------2-----------------------------------------------------|
C|-0-----0-3-----3-2-----2-------------------------------------------------|
G|-------------------------3-----------------------------------------------|
C|-------------------------------------------------------------------------|
Play three times.

D|---------------------0---------------------------------------------------|
A|-----3-------3-------------3b3b3b----------------------------------------|
F|---2-------2-------2-----------------------------------------------------|
C|-0-----0-3-----3-2-----2-------------------------------------------------|
G|-------------------------3-----------------------------------------------|
C|-------------------------------------------------------------------------|

D|-------------------------0-----------------------------------------------|
A|-------------------------------------------------------------------------|
F|---2---2---2---2---2---2-------------------------------------------------|
C|-0---0---3---3---2---2---------------------------------------------------|
G|-------------------------------------------------------------------------|
C|-------------------------------------------------------------------------|

Chorus 2
Guitar 1
D|-------------------------------------------------------------------------|
A|-------------------------------------------------------------------------|
F|---------------------------------------5-5-------------------------------|
C|-0-0------8-8------5-5------10-10------3-3------5-55-55------------------|
G|-0-0-0000-8-8-0000-5-5-0000-10-10-0000-3-3-0000-5-55-55------------------|
C|-0-0-0000-8-8-0000-5-5-0000-10-10-0000-3-3-0000-5-55-55------------------|
PM     ....     ....     ....       ....     ....
D|-------------------------------------------------------------------------|
A|-------------------------------------------------------------------------|
F|-------------------------------------------------------------------------|
C|-12-12-12-12-12-15-15-15-15-15-17-17-17-17-10b---------------------------|
G|-------------------------------------------------------------------------|
C|-------------------------------------------------------------------------|
Played twice.

Guitar 2
D|-------------------------------------------------------------------------|
A|-------------------------------------------------------------------------|
F|-------------------------------------------------------------------------|
C|-0-0------8-8------5-5------10-10------3-3------5-55-55------------------|
G|-0-0-xxxx-8-8-xxxx-5-5-xxxx-10-10-xxxx-3-3-xxxx-5-55-55------------------|
C|-0-0-xxxx-8-8-xxxx-5-5-xxxx-10-10-xxxx-3-3-xxxx-5-55-55------------------|
PM     ....     ....     ....       ....     ....

D|------3+3+3+3+----------------------3+3+3+3+-----------------------------|
A|------3+3+3+3+----------------------3+3+3+3+-----------------------------|
F|------3+3+3+3+----------------------3+3+3+3+-----------------------------|
C|-0-0--3+3+3+3+--0-0------------0-0--3+3+3+3+--3b-------------------------|
G|-0-0--3+3+3+3+--0-0---5+5+3+3+-0-0--3+3+3+3+--3b-------------------------|
C|-0-0------------0-0---5+5+3+3+-0-0------------3b-------------------------|
PM . .            . .            . . 
Played twice. 

Bridge
Guitar 1
D|-------------------------------------------------------------------------|
A|-------------------------------------------------------------------------|
F|-------------------------------------------------------------------------|
C|-0------3-------0------3-------------------------------------------------|
G|-0------3-------0------3-------------------------------------------------|
C|-0------3-------0------3-------------------------------------------------|

Guitar 2
D|-------------------------------------------------------------------------|
A|-------------------------------------------------------------------------|
F|-2------5-------2------5-------------------------------------------------|
C|-------------------------------------------------------------------------|
G|-------------------------------------------------------------------------|
C|-------------------------------------------------------------------------|

Both Guitars or just one.
D|-------------------------------------------------------------------------|
A|-------------------------------------------------------------------------|
F|-------------------------------------------------------------------------|
C|-----5--7--3-------------------------------------------------------------|
G|-------------------------------------------------------------------------|
C|--0-----------3----------------------------------------------------------|
Play twice.

Chorus 3
Guitar 1
D|-------------------------------------------------------------------------|
A|-------------------------------------------------------------------------|
F|---------------------------------------5-5-------------------------------|
C|-0-0------8-8------5-5------10-10------3-3------5-55-55------------------|
G|-0-0-0000-8-8-0000-5-5-0000-10-10-0000-3-3-0000-5-55-55------------------|
C|-0-0-0000-8-8-0000-5-5-0000-10-10-0000-3-3-0000-5-55-55------------------|
PM     ....     ....     ....       ....     ....
D|-------------------------------------------------------------------------|
A|-------------------------------------------------------------------------|
F|-------------------------------------------------------------------------|
C|-12-12-12-12-12-15-15-15-15-15-17-17-17-17-10b---------------------------|
G|-------------------------------------------------------------------------|
C|-------------------------------------------------------------------------|
Played twice.

Guitar 2
D|-------------------------------------------------------------------------|
A|-------------------------------------------------------------------------|
F|-------------------------------------------------------------------------|
C|-0-0------8-8------5-5------10-10------3-3------5-55-55------------------|
G|-0-0-xxxx-8-8-xxxx-5-5-xxxx-10-10-xxxx-3-3-xxxx-5-55-55------------------|
C|-0-0-xxxx-8-8-xxxx-5-5-xxxx-10-10-xxxx-3-3-xxxx-5-55-55------------------|
PM     ....     ....     ....       ....     ....

D|------3+3+3+3+----------------------3+3+3+3+-----------------------------|
A|------3+3+3+3+----------------------3+3+3+3+-----------------------------|
F|------3+3+3+3+----------------------3+3+3+3+-----------------------------|
C|-0-0--3+3+3+3+--0-0------------0-0--3+3+3+3+--3b-------------------------|
G|-0-0--3+3+3+3+--0-0---5+5+3+3+-0-0--3+3+3+3+--3b-------------------------|
C|-0-0------------0-0---5+5+3+3+-0-0------------3b-------------------------|
PM . .            . .            . . 
Played twice. 

Guitar 1
D|-------------------------------------------------------------------------|
A|-------------------------------------------------------------------------|
F|-------------------------------------------------------------------------|
C|-0000000-8888888-5555555-10101010101010-3333333-55555555-----------------|
G|-0000000-8888888-5555555-10101010101010-3333333-55555555-----------------|
C|-0000000-8888888-5555555-10101010101010-3333333-55555555-----------------|
PM     
D|-------------------------------------------------------------------------|
A|-------------------------------------------------------------------------|
F|-------------------------------------------------------------------------|
C|-12-12-12-12-12-15-15-15-15-15-17-17-17-17-10b---------------------------|
G|-------------------------------------------------------------------------|
C|-------------------------------------------------------------------------|
Played twice.

Guitar 2
D|-------------------------------------------------------------------------|
A|-------------------------------------------------------------------------|
F|-------------------------------------------------------------------------|
C|-0000000-8888888-5555555-10101010101010-3333333-55555555-----------------|
G|-0000000-8888888-5555555-10101010101010-3333333-55555555-----------------|
C|-0000000-8888888-5555555-10101010101010-3333333-55555555-----------------|

D|------3+3+3+3+----------------------3+3+3+3+-----------------------------|
A|------3+3+3+3+----------------------3+3+3+3+-----------------------------|
F|------3+3+3+3+----------------------3+3+3+3+-----------------------------|
C|-0-0--3+3+3+3+--0-0------------0-0--3+3+3+3+--3b-------------------------|
G|-0-0--3+3+3+3+--0-0---5+5+3+3+-0-0--3+3+3+3+--3b-------------------------|
C|-0-0------------0-0---5+5+3+3+-0-0------------3b-------------------------|
PM                . .            . . 
Played twice. 

Breakdown
Guitar 1
D|-------------------------------------------------------------------------|
A|-------------------------------------------------------------------------|
F|-------------------------------------------------------------------------|
C|-------------------------------------------------------------------------|
G|--3-33-33-33-3-3-33-33-33-3----------------------------------------------|
C|--3-33-33-33-3-3-33-33-33-3----------------------------------------------|

Guitar 2
D|-------------------------------------------------------------------------|
A|-------------------------------------------------------------------------|
F|-----5b------------------------------------------------------------------|
C|-------------------------------------------------------------------------|
G|-------------------------------------------------------------------------|
C|-------------------------------------------------------------------------|

Guitar 1
D|-------------------------------------------------------------------------|
A|-------------------------------------------------------------------------|
F|-------------------------------------------------------------------------|
C|-0----3333335------------------------------------------------------------|
G|-0--5-3333335-------------------------10/1212121212/13131313-------------|
C|-0--5-3333335-------------------------10/1212121212/13131313-------------|
PM    . ....... Play 4 times, them play ^this^^^^^^^^^^^^^^^^^

D|-------------------------------------------------------------------------|
A|-------------------------------------------------------------------------|
F|-------------------------------------------------------------------------|
C|-0----3333335------------------------------------------------------------|
G|-0--5-3333335------------------------8/1010101010/1212121212/13131313----|
C|-0--5-3333335------------------------8/1010101010/1212121212/13131313----|
PM    . ....... Play 3 times, them play ^this^^^^^^^^^^^^^^^^^
I can't really figure out the exact amount of times each part is played; 
just play along with the song.

Guitar 2 
D|-----------------8-------------------------------------------------------|
A|-------------------------------------------------------------------------|
F|-----7-5-3---7-5-----7-5-3-----------------------------------------------|
C|-------------------------------------------------------------------------|
G|-------------------------------------------------------------------------|
C|-------------------------------------------------------------------------|

Congrats, now with a little practice you can play Atomship's most well known
song, Pencil Fight!



Suggest correction
Give kudos to tab author, rate the tab!
1 2 3 4 5
comments
print report bad tab
guest
You may want to rate the tab now too:
select rating
Wanna post a correction for this tab? Suggest correction