Oops, an error
Loading. Please wait.

Plastic People Tab

version 1
version 1

Whole song

611 views 1 this week
no commentswrite comment
1 2 3 4 5
accurate
x 3
add to favorites
launch autoscroll
font size
0
reset
how to read this tab
guitar tuner
Autoscroll
slow
fast
+/-
esc
set tempo
stop
Help us to improve Ultimate-Guitar.com Take our survey!
×
Author
Difficulty
novice
"Plastic People"
ATOMSHIP
The Crash Of '47

Standard Tuning
h = hammer on
(v)= vibrato

Verses

E---------------------------------------------------------------------------|
B---------------------------------------------------------------------------|
G------10h12-10-8--8--8h10-8-7--7--7h8-----10h12-10-8--8--8h10-8-5(v)-------|
D--10-----------------------------------------------------------------------|
A--x------------------------------------------------------------------------|
E--8-----------------------------------8------------------------------------|

Chorus

E---------------------------------------------------------------------------|
B---------------------------------------------------------------------------|
G---------------------------------------------------------------------------|
D--10-10-10-xx-6-6-6-xx-5-5-5-xx--------------------------------------------|
A--10-10-10-xx-6-6-6-xx-5-5-5-xx----(Repeat Chorus 4x)----------------------|
E--8--8--8--xx-4-4-4-xx-3-3-3-xx--------------------------------------------|

This is all i had time to do. this is my second tab ever, so please feel free to send 
corrections to thekrevolution@gmail.com. This is my favourite Atomship song, Enjoy!
Suggest correction
Give kudos to tab author, rate the tab!
1 2 3 4 5
comments
print report bad tab
guest
You may want to rate the tab now too:
select rating
Please do not post tabs as comments. Select "correction" instead!