Oops, an error
Loading. Please wait.

Withered Tab

version 1
version 1

Whole song

8,148 views 6 this week
6 commentsread comments
1 2 3 4 5
x 16
add to favorites
launch autoscroll
font size
0
reset
how to read this tab
guitar tuner
Autoscroll
slow
fast
+/-
esc
set tempo
stop
Help us to improve Ultimate-Guitar.com Take our survey!
×
this is proly the most correct version of the song u will ever see on any sight and
atomship is really underrated they have alot of talent people jus dont realize it

song:withered
artist:atomship
album:the crash of 47'
tuning:(low to high) DGCFAD
*note* (lyrics included)

intro play 2x
------------------0-------------------------0-------------------|
------0-----------1-----------5-------------3-------------------|
-----2--2---------0----------0---0----------0-------------------|
----2----2----2---2---------4-----4----2----2-------------------|
---0---------3----3-----3/5-----------3-----3-------------------|
----------------------------------------------------------------|

verse (strumming pattern not defined)
--0-------0----------0------------------0-----------------------|
--0-------1----------5------------------3-----------------------|
--2-------0----------0------------------0-----------------------|
--2-------2----------4------------------2-----------------------|
--0-------3----------5------------------3-----------------------|
----------------------------------------------------------------|

chorus(strumming pattern not defined) those are lines of division not 1's
----1-------2----------0-----0-----0-|---------0------0-------------------|
----0-------3----------0-----0-----0-|--------5---0--5-----0--------------|
----0-------2----------0-----0-----0-|-----------4--------4---------------|
----0------------------2-----2-----2-|------------------------------------|
----2------------------2-----2-----2-|/\/\/\/\/\/\/\/\/\/\/\/\/\/\/\/\/\--|
----3------------------0---0-----0----------------------------------------|
play this befor going into the 2nd verse
bridge(strumming pattern not defined)
------2----0-----0----------------------------------------------------|
------3----1-----0----------------------------------------------------|
------2----0-----0----------------------------------------------------|
-----------2-----2----------------------------------------------------|
-----------3-----2----------------------------------------------------|
-----------------0----------------------------------------------------|


Because it's two in the morning and I'm feeling so ugly.
I've got this chip on my shoulder, keep my eyes spread wide open.

If you'd let me go.
Then I'd walk myself into the room, yes I will.
Then I'd lay right down and daydream of you, yes I will.
With this soul tell smile I'll blow a kiss to you, yes I will.
Then I'd lay right down and daydream of you.

It seems the sun is still sleeping and I'm feeling so lonely.
There's a girl in my bedroom but don't you worry she's not breathing.

If you'd let me go.
Then I'd walk myself into the room, yes I will.
Then I'd lay right down and daydream of you, yes I will.
With this hotel smile I'll blow a kiss to you, yes I will.
Then I'd lay right down and daydream of you.

And though your soul's been withered and wisped away.
My grey matter brings me home.
And though your soul's been withered and wisped away.
Your grey matter brings you home.

If you'd let me go.
Then I'd walk myself into the room, yes I will.
Then I'd lay right down and daydream of you, yes I will.
With this hotel smile I'll blow a kiss to you, yes I will.
Then I'd lay right down and daydream of you.

Because it's two in the morning and my eyes are spread wide open.

well thas it y'all if u have anyother atomship requests jus e-mail me unsane_guitarist5@yahoo.com or
t0l2tur3d_s0ul5_fl4w3d_m1nd@yahoo.com oo0o0or
ibanez_guitarist_7@hotmail.com
Suggest correction
comments
print report bad tab
6 comments total. Showing first comments.
+1 reply
Rocker3829 286 Oct 25, 2004 12:00 AM

they do have a lot of talent, checked your tab for ya and yes it is exact!

+1 reply
justin freche 15 Oct 23, 2007 10:26 PM

yea, this tab is very close to the original song if not exactly like it. and atomship is extremely underated

0 reply
soldierkahn 10 Apr 04, 2008 01:23 AM

in the main riff, it should be

------------------0-----------0-------------0-------------------|
------0-----------3-----------3-------------3-------------------|
-----2--2---------0----------0---0----------0-------------------|
----2----2----2---2---------4-----4----2----2-------------------|
---0---------3----3-----3/5-----------3-----3-------------------|
----------------------------------------------------------------|

guest
You may want to rate the tab now too:
select rating
Wanna post a correction for this tab? Suggest correction