Oops, an error
Loading. Please wait.

Withered Tab

version 2
version 2

Whole song

1,941 views 4 this week
2 commentsread comments
1 2 3 4 5
accurate
x 7
add to favorites
launch autoscroll
font size
0
reset
how to read this tab
guitar tuner
Tab Pro tools
  • play this tab
  • loop segment
  • change instrument
  • show fretboard
  • metronome
×
Best way to learn
"Withered"
Autoscroll
slow
fast
+/-
esc
set tempo
stop
Contributor
Song:   Withered
Artist: Atomship
Album:  The Crash of 47'
Tuning: (low to high) DGCFAD


Intro: play 2x
e-----------------0/----------------------0/------------------|
B-----0-----------1\-----------5----------3\------------------|
G----2--2---------0/---------0---0--------0/------------------|
D---2-----2----2--2\-------4-------4---2--2\------------------|
A--0---------3----3/---3/5-----------3----3/------------------|
E-------------------------------------------------------------|

verse (Pattern is 1 e  2 e     a 4 e & a)
e-0-------0----------0------------------0-----------------------------|
B-0-------1----------5------------------3-----------------------------|
G-2-------0----------0------------------0-----------------------------|
D-2-------2----------4------------------2-----------------------------|
A-0-------3----------5------------------3-----------------------------|
E---------------------------------------------------------------------|

chorus(1 e 2 e 3    a 4 e & a)
e---3-------2----------0-----0-----0-|---0---------------0------------|
B---3-------3----------0-----0-----0-|-5---------0-----5--------------|
G---0-------2----------0-----0-----0-|---------4---------------4------|
D---0------------------2-----2-----2-|--------------------------------|
A---2------------------2-----2-----2-|--------------------------------|
E---3------------------0---0-----0---|--------------------------------|
                                       1 e(&a) 2 e(&a) 3 e(&a) 4 e(&a)

e------------------------------------|---0---------------0------------|
B-----------3---------------3--------|-5---------0-----5---------0----|
G---0---------------0----------------|---------4---------------4------|
D-4-------4-------4-------4----------|--------------------------------|
A------------------------------------|--------------------------------|
E------------------------------------|--------------------------------|
  1 e(&a) 2 e(&a) 3 e(&a) 4 e(&a)      1 e(&a) 2 e(&a) 3 e(&a) 4 e(&a)

e---------------5~~~~~~~~~~~~~~~~-|
B---------5---5-------------------|
G-----7-----7---------------------|
D-4h5---5-------------------------|
A---------------------------------|
E---------------------------------|
  1 e & a 2 e & a 3 e & a 4 e & a

Same pattern throughout
------2----0-----0----------------------------------------------------|
------3----1-----0----------------------------------------------------|
------2----0-----0----------------------------------------------------|
-----------2-----2----------------------------------------------------|
-----------3-----2----------------------------------------------------|
-----------------0----------------------------------------------------|

e-----------------0/-----------------------------------0/-------------|
B-----0-----------1\------------------------5----------3\-------------|
G----2--2---------0/----------------------0---0--------0/-------------|
D---2-----2----2--2\--------------------4-------4---2--2\-------------|
A--0---------3----3/----------------3/5-----------3----3/-------------|
E---------------------------------------------------------------------|

e-----------------0/--------0/---------------||
B-----0-----------1\--------5\---------------||
G----2--2---------0/--------0/---------------||
D---2-----2----2--2\--------4\---------------||
A--0---------3----3/--------5/---------------||
E--------------------------------------------||

Because it's two in the morning and I'm feeling so ugly.
I've got this chip on my shoulder, keep my eyes spread wide open.

If you'd let me go.
Then I'd walk myself into the room, yes I will.
Then I'd lay right down and daydream of you, yes I will.
With this soul tell smile I'll blow a kiss to you, yes I will.
Then I'd lay right down and daydream of you.

It seems the sun is still sleeping, and I'm feeling so lonely.
There's a girl in my bedroom, but don't you worry she's not breathing.

If you'd let me go.
Then I'd walk myself into the room, yes I will.
Then I'd lay right down and daydream of you, yes I will.
With this hotel smile I'll blow a kiss to you, yes I will.
Then I'd lay right down and daydream of you.

And though your soul's been withered and wisped away.
My grey matter brings me home.
And though your soul's been withered and wisped away.
Your grey matter brings you home.

If you'd let me go.
Then I'd walk myself into the room, yes I will.
Then I'd lay right down and daydream of you, yes I will.
With this hotel smile I'll blow a kiss to you, yes I will.
Then I'd lay right down and daydream of you.

Because it's two in the morning and my eyes are spread wide open.
comments
print report bad tab
2 comments total.
0 reply
jables23092 wrote on June 11 2006, 04:51 pm

i love this song so much, pretty accurate

0 reply
Rodney Rocket wrote on May 11 2013, 04:09 pm

This song is awesome one of the best acoustic songs to play! Good tab Thanks.

I want to post or [tab]
guest
You may want to rate the tab now too:
select rating
Please do not post tabs as comments. Select "correction" instead!