Oops, an error
Loading. Please wait.

Mutna Rijeka Tab

681 views 1 this week
no commentswrite comment
1 2 3 4 5
please rate
add to favorites
launch autoscroll
font size
0
reset
how to read this tab
guitar tuner
Tab Pro tools
  • play this tab
  • loop segment
  • change instrument
  • show fretboard
  • metronome
×
Best way to learn
"Mutna Rijeka"
Autoscroll
slow
fast
+/-
esc
set tempo
stop
Contributor
Difficulty
novice
-------------------------------------------------------------------------------
                             Mutna Rijeka (State of Mind) - Atomsko skloniste
-------------------------------------------------------------------------------
Tabbed by: gwyder
Email: mirzamerdovic@gmail.com

Tuning: EADGBE

Verse:
E        G6
Kroz moj rodni grad
Cmaj7        Aadd9          E, Aadd9, E
Nekad davno tekla je rijeka
E           G6
Jedna obala bila je bijela
Cmaj7    Aadd9    E, Aadd9, E 
A druga kazu crna.

Verse:
Uz most podignut je hotel
U kojem danas gradani ubijaju vrijeme
Dok mladi peticiju pisu
Jer bacen im je prijatelj sa drugog kata.

Chorus:
E           A
O moj mili boze
                              E      D, A, E, D, A, E
Dal' je to stvarno bila samo sudbina.
E           A
O moj mili boze
                              E      D, a, E, D, A, E.
Dal' je to stvarno bila samo sudbina.


Solo:
e|--------------------------------------10x-0--------------------------------|
B|---------5-------------8-7-5-7-5----------0--------------------------------|
G|---5-6-7---7-6-7-6---------------7-6------1--------------------------------|
D|-7-----------------7-7--------------------2--------------------------------|
A|------------------------------------------2--------------------------------|
E|------------------------------------------0-12-7h8-9p7-7-7--12-7h8-9p7-7---|

e|-----5h7------------5----------------5h7-5-------12x-0-12-0---------------|
B|-7h8-----5------5-7----7-5-7-5-------------5h7-5-----0----0----------------|
G|------------6-7-----------------6-6------------------1----1----------------|
D|-----------------------------------------------------2----2----------------|
A|-----------------------------------------------------2----2----------------|
E|-----------------------------------------------------0----0----------------|

Verse:
Danas kroz moj rodni grad
Tece rijeka ka plavom moru
Uz obale njene bijele
Tece voda posve mutna.

Verse:
Mutna rijeka, mutna rijeka ... 

Chord diagrams:
    Aadd9  Cmaj7    G6   E
e|----0------0-------0---0---------------------------------------------------|
B|----0------0-------0---0---------------------------------------------------|
G|----6------9-------4---1---------------------------------------------------|
D|----7------10------5---2---------------------------------------------------|
A|----7------10------5---2---------------------------------------------------|
E|----5------8-------3---0---------------------------------------------------|

| /  slide up
| \  slide down
| h  hammer-on
| p  pull-off
| ~  vibrato
| +  harmonic
| x  Mute note
===============================================================================
comments
We did not receive enough feedback on this tab! Please rate:
print report bad tab
1 2 3 4 5
I want to post or [tab]
guest
You may want to rate the tab now too:
select rating
Please do not post tabs as comments. Select "correction" instead!