Oops, an error
Loading. Please wait.

One Guy Two Girls I Like The Odds Tab

174 views 1 this week
no commentswrite comment
1 2 3 4 5
please rate
add to favorites
launch autoscroll
font size
0
reset
how to read this tab
guitar tuner
Autoscroll
slow
fast
+/-
esc
set tempo
stop
Help us to improve Ultimate-Guitar.com Take our survey!
×
Difficulty
novice
ATRAGEDYINPROGRESS

TRACK: One Guy,Two Girls, I like The Odds
ALBUM:"Only The Dead Have Seen The End Of War -Plato" Ep

TUNING: STANDARD
NOTES: This is my first attempt at tabbing so some parts may not sound right,listen to 
song very carefully to get the strumming patterns.

Contact me at atragedyinprogress@hotmail.com or visit our myspace.com/atragedyinprogress

R =Rest/Stop
~ =Let Note Ring
Pm =Palm Mute
Synth =Synthizer

E||--------------------------|-------|--------------------------|-------|
B||--------------------------|-------|--------------------------|-------|
G||--------------------------|-------|--------------------------|-------|
D||--11----11----11----11-R--|-------|--11----11----11----11-R--|-------|
A||---9-----9-----9-----9-R--|-------|---9-----9-----9-----9-R--|-------|
E||---9-----9-----9-----9-R--|-------|---9-----9-----9-----9-R--|-------|


----------------------|-------|----------------------|-------|
----------------------|-------|----------------------|-------|
----------------------|-------|----------------------|-------|
--7----7----7----7-R--|-------|--9----9----9----9-R--|-------|
--5----5----5----5-R--|-------|--7----7----7----7-R--|-------|
--5----5----5----5-R--|-------|--7----7----7----7-R--|-------|


--------------------------|-------|--------------------------|-------|
--------------------------|-------|--------------------------|-------|
--------------------------|-------|--------------------------|-------|
--11----11----11----11-R--|-------|--11----11----11----11-R--|-------|
---9-----9-----9-----9-R--|-------|---9-----9-----9-----9-R--|-------|
---9-----9-----9-----9-R--|-------|---9-----9-----9-----9-R--|-------|

----------------------|-------|----------------------|-------|
----------------------|-------|----------------------|-------|
----------------------|-------|----------------------|-------|
--7----7----7----7-R--|-------|--9----9----9----9-R--|-------|
--5----5----5----5-R--|-------|--7----7----7----7-R--|-------|
--5----5----5----5-R--|-------|--7----7----7----7-R--|-------|


--------------------------|--------|--------------------------|--------|
--------------------------|--------|--------------------------|--------|
--------------------------|--------|--------------------------|--------|
--11----11----11----11-R--|--11~---|--11----11----11----11-R--|--11~---|
---9-----9-----9-----9-R--|---0~---|---9-----9-----9-----9-R--|---0~---|
---9-----9-----9-----9-R--|---0~---|---9-----9-----9-----9-R--|---0~---|


----------------------|-------|----------------------|-------|-------|
----------------------|-------|----------------------|-------|-------|
----------------------|-------|----------------------|-------|-------|
--7----7----7----7-R--|--7~---|--9----9----9----9-R--|--9~---|-------|
--5----5----5----5-R--|--0~---|--7----7----7----7-R--|--0~---|-------|
--5----5----5----5-R--|--0~---|--7----7----7----7-R--|--0~---|-------|

--------------------------|--------|--------------------------|--------|
--------------------------|--------|--------------------------|--------|
--------------------------|--------|--------------------------|--------|
--11----11----11----11-R--|--11~---|--11----11----11----11-R--|--11~---|
---9-----9-----9-----9-R--|---0~---|---9-----9-----9-----9-R--|---0~---|
---9-----9-----9-----9-R--|---0~---|---9-----9-----9-----9-R--|---0~---|


----------------------|-------|----------------------|-------|
----------------------|-------|----------------------|-------|
----------------------|-------|----------------------|-------|
--7----7----7----7-R--|--7~---|--9----9----9----9-R--|--9~---|
--5----5----5----5-R--|--0~---|--7----7----7----7-R--|--0~---|
--5----5----5----5-R--|--0~---|--7----7----7----7-R--|--0~---|




 (Strum) (strum) (Strum) (Strum) (strum) (Strum)
|-------|-------|-------|-------|-------|-------|
|-Synth-|-Synth-|-Synth-|-Synth-|-Synth-|-Synth-|
|-------|-------|-------|-------|-------|-------|
|--11~--|--7~---|--9~---|-11~---|--7~---|--9-R--|
|---9~--|--5~---|--7~---|--9~---|--5~---|--7-R--|
|---9~--|--5~---|--7~---|--9~---|--5~---|--7-R--|


<<<>>>


E||-----------------|-----------------|----------------------|-------|-------|
B||-----------------|-----------------|----------------------|-------|-------|
G||-----------------|-----------------|----------------------|-------|-------|
D||--3----3----3----|--5----5----5----|--4----4----4----4----|--4----|-------|
A||--5----5----5----|--5----5----5----|--2----2----2----2----|--2----|-------|
E||--3----3----3----|--3----3----3----|--2----2----2----2----|--2----|-------|


----------------------|----------------------|----------------------|
----------------------|----------------------|----------------------|
----------------------|----------------------|----------------------|
--5----5----5----5----|--5----5----5----5----|--5----5----5----5----|
--3----3----3----3----|--3----3----3----3----|--3----3----3----3----|
--3----3----3----3----|--3----3----3----3----|--3----3----3----3----|


----------------------|------------|------------|----------------------|
----------------------|------------|------------|----------------------|
----------------------|------------|------------|----------------------|
--5----5----5----5----|--4----4----|--5----5----|--4----4----4----4----|
--3----3----3----3----|--5----5----|--5----5----|--2----2----2----2----|
--3----3----3----3----|--3----3----|--3----3----|--2----2----2----2----|


-----------|
-----------|
-----------|x4
--4--------|
--2--------|>LET THE VERY LAST CHORD RING
--2--------|


>>>>vERSE<<<<

E||----------------------|----------------------|------------|
B||----------------------|----------------------|------------|
G||----------------------|----------------------|------------|
D||--5----5----5----5----|--5----5----5----5----|--5----5----|
A||--3----3----3----3----|--3----3----3----3----|--3----3----|
E||--3----3----3----3----|--3----3----3----3----|--3----3----|
    Pm    Pm   Pm   Pm      Pm   Pm   Pm   Pm      Pm   Pm
----------------------|----------------------|------------|
----------------------|----------------------|------------|
----------------------|----------------------|------------|
--4----4----4----4----|--4----4----4----4----|--4----4----| X4
--2----2----2----2----|--2----2----2----2----|--2----2----|<"STRUM THE VERY LAST CORD"
--2----2----2----2----|--2----2----2----2----|--2----2----|
  Pm   Pm   Pm   Pm      Pm   Pm   Pm   Pm      Pm   Pm

<<<<>>>>

<<>>

E||-----------------|-----------------|-----------------|-----------------|
B||-----------------|-----------------|-----------------|-----------------|
G||-----------------|-----------------|-----------------|-----------------|
D||--5----5----5----|--5----5----5----|--5----5----5----|--5----5----5----|
A||--3----3----3----|--3----3----3----|--3----3----3----|--3----3----3----|
E||--3----3----3----|--3----3----3----|--3----3----3----|--3----3----3----|
     P    P    P       P    P    P       P    P    P       P    P    P

-----------------|-----------------|------------|------------|-------|
-----------------|-----------------|------------|------------|-------|
-----------------|-----------------|------------|------------|-------|
--5----5----5----|--5----5----5----|--5----5-R--|--5----5-R--|--2~---|
--3----3----3----|--3----3----3----|--3----3-R--|--3----3-R--|--2~---|
--3----3----3----|--3----3----3----|--3----3-R--|--3----3-R--|--0~---|
  P    P    P       P    P    P


(BASS SOLO)

E||----------------------|----------------------|----------------------|
B||----------------------|----------------------|----------------------|
G||----------------------|----------------------|----------------------|
D||--2----2----2----2----|--2----2----2----2----|--4----4----4----4----|
A||--2----2----2----2----|--3----3----3----3----|--5----5----5----5----|
E||----------------------|----------------------|----------------------|
     P    P    P    P       P    P    P    P       P    P    P    P
----------------------||
----------------------||
----------------------||
--2----2----2----2----|| X8
--3----3----3----3----||
----------------------||
  P    P    P    P


>>>>OUTRO<<<<

E||----------------------|-----------------|-----------------|
B||----------------------|-----------------|-----------------|
G||--1----1----1----1-R--|--1----1----1----|--1----1----1----|
D||--2----2----2----2-R--|--2----2----2----|--2----2----2----|
A||--2----2----2----2-R--|--2----2----2----|--2----2----2----|
E||-------------------R--|-----------------|-----------------|


----------------------|----------------------|-----------------|
----------------------|----------------------|-----------------|
----------------------|----------------------|-----------------|
--5----5----5----5-R--|--7----7----7---------|--7----7----7----| X5
--3----3----3----3-R--|--5----5----5---------|--5----5----5----|
--3----3----3----3-R--|--5----5----5---------|--5----5----5----|

|-------||
|-------||
|--1~---||
|--2~---||
|--2~---||
|-------||
Suggest correction
What's this?
You can suggest a correction to this tab. Community and Mods will review your correction and vote to approve or reject it.
comments
We did not receive enough feedback on this tab! Please rate:
print report bad tab
1 2 3 4 5
guest
You may want to rate the tab now too:
select rating
Please do not post tabs as comments. Select "correction" instead!