Oops, an error
Loading. Please wait.

At Least I Know Im A Sinner bass

version 1
version 1

Whole song

Interactive

by Atreyu
457 views 1 this week
2 commentsread comments
1 2 3 4 5
1 last vote to show rating
add to favorites
×
Save as Personal and add changes to this tab that will be seen only by you. Learn more ›
×
You can save this tab as Personal to edit and correct it or add notes. All changes will be seen only by you. Learn more »
launch autoscroll
font size
0
reset
guitar tuner
edit
Autoscroll
slow
fast
+/-
esc
set tempo
stop
Band- Atreyu
Song- At Least I Know I'm A Sinner

 intro                                      verse      chorus          ...
-|----------------|----|-2-0---|----|-2-0---|-------------|-------|-----------|
-|----------------|----|-----2-|----|-----2-|-------------|-------|-----------|
-|-5------------3-|----|-------|----|-------|-------------|-------|-----------|
-|---0-0-0--320---|-0*-|-------|-0*-|-------|-00-33-58-8*-|-5*-8*-|-000000-03-|

   bridge / preverse                  verse      "judge me and ..." chorus
-|----------------------------------|----------|-------------------|-------|--|
-|----------------------------------|----------|-------------------|-------|--|
-|----------------------------------|----------|-------------------|-------|--|
-|-5555555-53-0-000000-03-7777-3333-|-0-3-5-8*-|-0--0----2222-3333-|-5*-8*-|--|

   bridge / preverse                                                outro
-|--------------------------------------------|---|---------------|-------|---|
-|--------------------------------------------|---|---------------|-------|---|
-|--------------------------------------------|---|---------------|-8*----|---|
-|-000000-03-5-55555-53-0-000000-03-7777-3333-|-0-|---------------|----5*-|---|
Suggest correction
Creating personal tab
Creating personal tab
You can edit any tab online and save it as your Personal.

You can edit, replace or remove any tab part or add personal notes – all changes will be seen only by you.

Personal tabs can be accessed anytime from any device, even offline.
Learn more »
Give kudos to tab author, rate the tab!
1 2 3 4 5
comments
print report bad tab
2 comments total.
0 reply
squishmonster 10 Aug 25, 2006 01:55 AM

it's pretty much correct, it just needs adjusting.
listen to the song, there are some repeats in the riffs. i can't put them in because i can't see the tab properly in the comment box

Band- Atreyu
Song- At Least I Know I'm A Sinner

tuning: C G C F
intro verse chorus ...
-|----------------|----|-2-0---|----|-2-0---|-------------|-------|-----------|
-|----------------|----|-----2-|----|-----2-|-------------|-------|-----------|
-|-5------------3-|----|-------|----|-------|-------------|-------|-----------|
-|---0-0-0--320---|-0*-|-------|-0*-|-------|-00-33-58-8*-|-5*-8*-|-000000-03-|

bridge / preverse verse "judge me and ..." chorus
-|----------------------------------|----------|-------------------|-------|--|
-|----------------------------------|----------|-------------------|-------|--|
-|----------------------------------|----------|-------------------|-------|--|
-|-5555555-53-0-000000-03-7777-3333-|-0-3-5-8*-|-0--0----2222-3333-|-5*-8*-|--|

bridge / preverse outro
-|--------------------------------------------|---|---------------|-------|---|
-|--------------------------------------------|---|---------------|-------|---|
-|--------------------------------------------|---|---------------|-8*----|---|
-|-000000-03-5-55555-53-0-000000-03-7777-3333-|-0-|---------------|----5*-|---|

0 reply
Corpse_Sledding 10 Jun 27, 2007 05:05 PM

Please put in the repeats and something about that 2-0-2 thing doesn't sound quite right.. I don't know...

guest
You may want to rate the tab now too:
select rating
Wanna post a correction for this tab? Suggest correction