Oops, an error
Loading. Please wait.

Becoming The Bull bass

version 1
version 1

Whole song

by Atreyu
14,354 views 3 this week
15 commentsread comments
1 2 3 4 5
x 7
add to favorites
×
Save as Personal and add changes to this tab that will be seen only by you. Learn more ›
×
You can save this tab as Personal to edit and correct it or add notes. All changes will be seen only by you. Learn more »
launch autoscroll
font size
0
reset
guitar tuner
edit
Autoscroll
slow
fast
+/-
esc
set tempo
stop
-------------------------------------------------------------------------------
			     Becoming the Bull - Atreyu
-------------------------------------------------------------------------------

Tabbed By : guitarkenny
e-mail: kenjy92@yahoo.com

Tuning: Drop C
              
             Intro: 0:00 - 0:15
F|-------------------------------------------|
C|-------------------------------------------|
G|-------------------------------------------|
C|--12\---12\---12\---12\---12\---12\---12\--|

    Heavy Intro: 0:15 - 0:26            End Intro On:
F|------------------------------|-----------------------------|
C|----------------------------x3|-----------------------------|
G|--------------0---------------|---------------0-------------|
C|-0-0-3-0--0-3---6-3-5p3-5p3---|-0-0-3-0---0-3---0-0-0-0-0-3-|
       
 Verse 1: 0:26 - 0:46     
F|-----------------|
C|---------------x8|
G|-----------------|
C|-0--\12--0-0h3---|


             Pre-Chorus: 0:46 - 0:48
F|--------------------------------------------------|
C|--------------------------------------------------|
G|--------------------------------------------------| 
C|--8--5--0--8--5--0--8--5--0--8--5--0--0--0--0--0--|       

         
        Chorus 1: 0:48 - 1:08                    End Chorus On:
F|-----------------------------------|-----------------------------------|
C|---------------------------------x3|-----------------------------4/9999|
G|-11111111--------33333333----------|-11111111--------33333333----------|
C|---------00000000--------55555555--|---------00000000--------5555------|
   1 + 2 + 3 + 4 + 1 + 2 + 3 + 4 +     

       
          Post-Chorus: 1:08 - 1:13
F|------------------------------------------|
C|------------------------------------------|
G|------------------------------------------|
C|--0---0---0---12\---0---12\---0-0-0-0-0-3-|


          Verse 2: 1:13 - 1:23
F|------------------------------------|
C|----------------------------------x4|
G|------------------------------------|
C|-00--12\-00-----0-00-12\-00---------|
   1e+a2e+a3e+a4e+a1e+a2e+a3e+a4e+a


            Pre-Chorus 2: 1:34 - 1:37
F|------------------------------------------------|
C|------------------------------------------------|
G|------------------------------------------------| 
C|--8--5--0--8--5--0--8--5--0--8--5--0--0--0--0--0| 


        Chorus 2: 1:37 - 2:01                    End Chorus On:
F|-----------------------------------|-----------------------------------|
C|---------------------------------x4|-----------------------------4/9999|
G|-11111111--------33333333----------|-11111111--------33333333----------|
C|---------00000000--------55555555--|---------00000000--------5555------|
   1 + 2 + 3 + 4 + 1 + 2 + 3 + 4 +     






                                             1st time only   2nd time only
              Bridge: 2:01 - 2:32                  *              *
F|-----------------------------------------------|-(7h9)-|-----------------|
C|--5h7--5------5h7--5------3h5--3---2---------x3|-------|------5-3-2-0----|
G|---------5-----------5-----------------3-------|-------|--------------3--|
C|-----------------------------------------------|-------|-----------------|
          (Play 1st four notes quietly)


     Guitar Break: 2:32 - 2:42
F|--------------------------------|
C|--------------------------------|
G|--------------------------------|
C|--------------0--0--------------|


                     Intense Part: 2:42 - 2:52
F|------------------------------------------------------------------|
C|------------------------------------------------------------------|
G|------------------------------------------------------------------|
C|-8-5-0-8-5-0-8-5-0-8-5-0-8-5-0-10-7-0-10-7-0-10-7-0-10-7-0-10-7-0-|

F|------------------------------------------------------------------|
C|------------------------------------------------------------------|
G|------------------------------------------------------------------|
C|-8-5-0-8-5-0-8-5-0-8-5-0-8-5-0-11-8-0-11-8-0-11-8-0-11-8-0--0--0--|



         Chorus 3: 3:02 - 3:28                   End Chorus On:
F|-----------------------------------|-----------------------------------|
C|---------------------------------x4|-----------------------------4/9999|
G|-11111111--------33333333----------|-11111111--------33333333----------|
C|---------00000000--------55555555--|---------00000000--------5555------|
   1 + 2 + 3 + 4 + 1 + 2 + 3 + 4 + 

        Outro: 3:28 - 3:34                End song on:
F|------------------------------|----------------------------|
C|----------------------------x3|----------------------------|
G|--------------0---------------|---------------0------------|
C|-0-0-3-0--0-3---6-3-5p3-5p3---|-0-0-3-0---0-3---6-3-0-0-0-0|
       



| /  slide up
| \  slide down
| h  hammer-on
| p  pull-off
| ~  vibrato
| +  harmonic
| x  Mute note
===============================================================================
Suggest correction
Creating personal tab
Creating personal tab
You can edit any tab online and save it as your Personal.

You can edit, replace or remove any tab part or add personal notes – all changes will be seen only by you.

Personal tabs can be accessed anytime from any device, even offline.
Learn more »
comments
print report bad tab
15 comments total. Showing first comments.
-2 reply
DuffMcKagan7179 1,502 Oct 08, 2007 10:52 AM

No, no, no, it's decent for maybe half the tab. The 8-5-0 is NOT triplets, and what do you mean, slide up to 12 in the intro?

0 reply
SnowMan1 195 Oct 08, 2007 12:35 PM

intro doesnt seem right. and neither does the main riff. but other parts are fine.

+3 reply
guitarkenny 72 Oct 08, 2007 02:20 PM

1. it says slide down FROM 12

2. do you even know what triplets are ?

guest
You may want to rate the tab now too:
select rating
Wanna post a correction for this tab? Suggest correction