Oops, an error
Loading. Please wait.

Becoming The Bull intro tab

version 2
version 2
by Atreyu
11,545 views 6 this week
5 commentsread comments
1 2 3 4 5
x 6
add to favorites
×
Save as Personal and add changes to this tab that will be seen only by you. Learn more ›
×
You can save this tab as Personal to edit and correct it or add notes. All changes will be seen only by you. Learn more »
launch autoscroll
font size
0
reset
how to read this tab
guitar tuner
edit
Autoscroll
slow
fast
+/-
esc
set tempo
stop
       ----------------------------------------
       -------BECOMING THE BULL==INTRO---------
       ----------------ATREYU------------------
       ----------------------------------------

                Tabbed by: Slats18
          Email: slats_18*at*hotmail*dot*com

    Intro to start off with, will think about doing 
    the rest of the song later. The pull-offs and 
    hammer-ons at the start are optional but makes 
    makes it easier in my opinion, only need to get
    the timing right.


               TUNING: Drop C (CGCFAD)
                  -----------------
                  | x - palm mute |
                  | p - pull-off  |
                  | h - hammer-on |
                  | ~ - let ring  |
                  -----------------

    D||------------------------------------|
    A||------------------------------------|
    F||------------------------------------|(3x)
    C||----------------7-6-----------------|
    G||------8p5---5h8-------8---10p8------|
    C||--0-0--------------------------10p8-|
         x x

    D||------------------------------------|
    A||------------------------------------|
    F||------------------------------------|(1x)
    C||----------------7-0-0-0-0-0-3~------|
    G||------8p5---5h8---0-0-0-0-0-3~------|
    C||--0-0-------------0-0-0-0-0-3~------|
         x x             x x x x x

      Repeat as neccesary.

            
            
Suggest correction
Creating personal tab
Creating personal tab
You can edit any tab online and save it as your Personal.

You can edit, replace or remove any tab part or add personal notes – all changes will be seen only by you.

Personal tabs can be accessed anytime from any device, even offline.
Learn more »
comments
print report bad tab
5 comments total. Showing first comments.
0 reply
rcw110131 696 Jun 09, 2007 07:32 AM

I submitted a tab of this too (it got rejected?)...I'm pretty sure there's another palm-muted C note in there, like this:

D|----------------|----------------|
A|----------------|----------------|
F|----------------|----------------|
C|--------------7-|6-*-3-*-5-3-----|
G|----8p5---5h8---|------------3-1-|
C|0-0-----0-------|----------------|
PM . . .

Oh well, at least we have an accurate tab of this and not some not-even-close version like the one added yesterday.

0 reply
rcw110131 696 Jun 09, 2007 07:33 AM

Grrrr...the palm mutes got messed up, I can imagine you know what I'm talking about lol

0 reply
Headbanger94 10 Sep 22, 2007 04:27 PM

it's good but i dont think it's 8p5 or 5h8, i think it's just 8-5 and 5-8. but that is an extremely minor mistake. 5*'s but i wanna kno mor than just the intro.

guest
You may want to rate the tab now too:
select rating
Wanna post a correction for this tab? Suggest correction