Oops, an error
Loading. Please wait.

Becoming The Bull tab

version 3
version 3
by Atreyu
3,455 views 1 this week
5 commentsread comments
1 2 3 4 5
x 15
add to favorites
×
Save as Personal and add changes to this tab that will be seen only by you. Learn more ›
×
You can save this tab as Personal to edit and correct it or add notes. All changes will be seen only by you. Learn more »
launch autoscroll
font size
0
reset
how to read this tab
guitar tuner
edit
Autoscroll
slow
fast
+/-
esc
set tempo
stop
Becoming The Bull
Atreyu

Transcribed by Seth Shadows {F.u.c.kallyourfalsebeauty@hotmail.com}

Words by Alex Varkatzas Music by Atreyu
Arranged by Atreyu
 

Gtr I (C G C F A D) - 'Rhythm 1'
Gtr II (C G C F A D) - 'Rhythm 2'
Gtr III (C G C F A D) - 'Lead'
Gtr IV (D G C F A D) - 'Clean'


 Intro Effects
  Q=196
 4/4

| Gtrs I, II
| W           W               W            H     E  Q.
|----------|---------------|------------|-----------------||
|----------|---------------|------------|-----------------||
|----------|---------------|------------|-----------------||
|----------|---------------|------------|-----------------||
|----------|---------------|------------|-----------------||
|----------|---------------|------------|--------xs15\----||


 Intro
  Gtrs I, II
   PM-|     PM            PM  PM
   E  E E E E E E E    E  E E E  E E  E E
|-------------------|---------------------|
|-------------------|---------------------|
|-------------------|---------------------|
|-----------------7p|==6------------------|
|-------8p5---5h8---|-------8---10p8------|
|--0--0-----0-------|-----0---0------10p7-|
|
| Gtr III
|  <
|  W                  +W
|-------------------|---------------------|
|-------------------|---------------------|
|-<5>---------------|-(5)-----------------|
|-------------------|---------------------|
|-------------------|---------------------|
|-------------------|---------------------|


   PM-|     PM            PM  PM
   E  E E E E E E E    E  E E E  E E  E E
|-------------------|---------------------|
|-------------------|---------------------|
|-------------------|---------------------|
|-----------------7p|==6------------------|
|-------8p5---5h8---|-------8---10p8------|
|--0--0-----0-------|-----0---0------10p7-|
|
|  >
| +W                  +W
|-------------------|---------------------|
|-------------------|---------------------|
|-(5)---------------|-(5)-----------------|
|-------------------|---------------------|
|-------------------|---------------------|
|-------------------|---------------------|


   PM-|     PM            PM  PM
   E  E E E E E E E    E  E E E  E E  E E
|-------------------|---------------------|
|-------------------|---------------------|
|-------------------|---------------------|
|-----------------7p|==6------------------|
|-------8p5---5h8---|-------8---10p8------|
|--0--0-----0-------|-----0---0------10p7-|
|
|  <
|  W                  +W
|-------------------|---------------------|
|-<5>---------------|-(5)-----------------|
|-<5>---------------|-(5)-----------------|
|-------------------|---------------------|
|-------------------|---------------------|
|-------------------|---------------------|


   PM-|     PM          PM---------|
   E  E E E E E E E     S  S E E E e Q.
|--------------------|---------------------||
|--------------------|---------------------||
|--------------------|---------------------||
|-----------------7\-|---------------3-----||
|-------8p5---5h8----|--0--0-0-0-0-3-3-----||
|--0--0-----0--------|--0--0-0-0-0-0-3-----||
|
|                       PM
| +W                   +w
|--------------------|---------------------||
|-(5)----------------|-(5)-----------------||
|-(5)----------------|-(5)-----------------||
|--------------------|---------------------||
|--------------------|---------------------||
|--------------------|---------------------||


 PreVerse
  Gtrs I, II
  PM|     PM          PM  PM            PM|     PM          PM  PM
  E E E E E E E E   E E E E  E E  E E   E E E E E E E E   E E E E  E E  E E
|-----------------|-------------------|-----------------|-------------------|
|-----------------|-------------------|-----------------|-------------------|
|-----------------|-------------------|-----------------|-------------------|
|---------------7p|=6-----------------|---------------7p|=6-----------------|
|-----8p5---5h8---|-----8---10p8------|-----8p5---5h8---|-----8---10p8------|
|-0-0-----0-------|---0---0------10p7-|-0-0-----0-------|---0---0------10p7-|


  Gtr I
  PM|     PM          PM  PM
  E E E E E E E E   E E E E  E E  E E
|-----------------|-------------------|
|-----------------|-------------------|
|-----------------|-------------------|
|---------------7p|=6-----------------|
|-----8p5---5h8---|-----8---10p8------|
|-0-0-----0-------|---0---0------10p7-|
|
| Gtr II
| PM|     PM          PM  PM
| E E E E E E E E   E E E E  E E  E E
|-----------------|-------------------|
|-----------------|-------------------|
|-----------------|-------------------|
|---------------7p|=6-----------------|
|-----8p5---5h8---|-----8---10p8------|
|-0-0-----0-------|---0---0------10p7-|


  PM|     PM           PM------------|
  E E E E E E E  E     S S E E   S S e  Q.
|--------------------|--------------------------||
|--------------------|--------------------------||
|--------------------|--------------------------||
|----------------7\--|------------------3-------||
|-----8p5---5h8------|-0-0-0-0---0-0-3--3-------||
|-0-0-----0----------|-0-0-0-0---0-0-0--3-------||
|
| PM|     PM           PM------------|
| E E E E E E E  E     E   E S S E   E  Q.
|--------------------|--------------------------||
|--------------------|--------------------------||
|--------------------|--------------------------||
|---------------[7]\-|-----------------[3]b5----||
|-----8p5---5h8------|-0---0-0-0-0---0----------||
|-0-0-----0----------|-0---0-0-0-0---0----------||


 Verse 1
  Gtr I
   PM-|       PM          PM  PM
   E   E  E E E E E E   E E E E  E E  E E
|---------------------|-------------------|
|---------------------|-------------------|
|---------------------|-------------------|
|-------------------7p|=6-----------------|
|---------8p5---5h8---|-----8---10p8------|
|--0---0------0-------|---0---0------10p7-|
|
| Gtr II
|         PM------------|
|  E   E  H.            W
|---------------------|-------------------|
|---------------------|-------------------|
|---------------------|-------------------|
|-(3)p(2)-------------|-------------------|
|--0---0--------------|-------------------|
|--0---0--------------|-------------------|


   PM-|       PM          PM  PM
   E   E  E E E E E E   E E E E  E E  E E
|---------------------|-------------------|
|---------------------|-------------------|
|---------------------|-------------------|
|-------------------7p|=6-----------------|
|---------8p5---5h8---|-----8---10p8------|
|--0---0------0-------|---0---0------10p7-|
|
|         PM
|  E   E  H.            W
|---------------------|-------------------|
|---------------------|-------------------|
|---------------------|-------------------|
|-(3)p(2)-------------|-------------------|
|--0---0--------------|-------------------|
|--0---0--------------|-------------------|


   PM-|       PM          PM  PM
   E   E  E E E E E E   E E E E  E E  E E
|---------------------|-------------------|
|---------------------|-------------------|
|---------------------|-------------------|
|-------------------7p|=6-----------------|
|---------8p5---5h8---|-----8---10p8------|
|--0---0------0-------|---0---0------10p7-|
|
|  E   E  H.            W
|---------------------|-------------------|
|---------------------|-------------------|
|---------------------|-------------------|
|-(3)p(2)-------------|-------------------|
|--0---0--------------|-------------------|
|--0---0--------------|-------------------|


  PM|     PM         PM------------|
  E E E E E E E E    S S E E   S S e  Q.
|------------------|--------------------------||
|------------------|--------------------------||
|------------------|--------------------------||
|---------------7\-|------------------3-------||
|-----8p5---5h8----|-0-0-0-0---0-0-3--3-------||
|-0-0-----0--------|-0-0-0-0---0-0-0--3-------||
|
| <
| PM-------------------------------|
| E E E E E E E E    E   E S S E   E  Q.
|------------------|--------------------------||
|------------------|--------------------------||
|------------------|--------------------------||
|------------------|-----------------[3]b5----||
|------------------|-0---0-0-0-0---0----------||
|-0-0-0-0-0-0-0-0--|-0---0-0-0-0---0----------||


    Gtrs I, II
    PM|     PM          PM  PM            PM|     PM
    E E E E E E E E   E E E E  E E  E E   E E E E E E E E
||------------------|-------------------|-----------------|
||o-----------------|-------------------|-----------------|
||------------------|-------------------|-----------------|
||----------------7p|=6-----------------|---------------7p|
||o-----8p5---5h8---|-----8---10p8------|-----8p5---5h8---|
||--0-0-----0-------|---0---0------10p7-|-0-0-----0-------|


    PM  PM                      PM       PM         PM       ~~
  E E E E  E E  E E       E  E  E  E  E  E  E  E    E  E  E  E  +E   Q.
|--------------------||--------------------------|-------------------------||
|-------------------o||--------------------------|-------------------------||
|--------------------||--------------------------|-------------------------||
|-6------------------||--------------------------|-------------------------||
|-----8---10p8------o||-/13p10----12p10----13p10-|----12p10----------------||
|---0---0------10p7--||--------12-------12-------|-12-------12-(12)\-------||


   Chorus
    Gtrs I, II
     E  S S  E  E  E E  E E    E  S S  E  E  E E  E E
||--------------------------|-------------------------|
||o-------------------------|-------------------------|
||---3-------3--3--3-3--3-3-|-------------------------|
||---3--3-3--3--3--3-3--3-3-|--0-------0--0--0-0--0-0-|
||o--1--1-1--1--1--1-1--1-1-|--0--0-0--0--0--0-0--0-0-|
||--------------------------|--0--0-0--0--0--0-0--0-0-|
|
|   Gtr III
|    E  E    E  E  Q    Q      E  E    E  E  Q    Q
||--------------------------|-------------------------|
||o------------10h11---10---|------------10h11---10---|
||----------10--------------|---------10--------------|
||-----12-------------------|----12-------------------|
||o-13----------------------|-13----------------------|
||--------------------------|-------------------------|


   E  S S  E  E  E E  E E    E S S E E E E E E
|-------------------------|---------------------|
|-------------------------|---------------------|
|--5-------5--5--5-5--5-5-|---------------------|
|--5--5-5--5--5--5-5--5-5-|--5-----5-5-5-5-5-5--|
|--3--3-3--3--3--3-3--3-3-|--5-5-5-5-5-5-5-5-5--|
|-------------------------|--5-5-5-5-5-5-5-5-5--|
|
|  E  E    E  E  Q    Q      W
|-------------------------|---------------------|
|------------10h11---10---|-10------------------|
|---------10--------------|---------------------|
|----12-------------------|---------------------|
|-13----------------------|---------------------|
|-------------------------|---------------------|


  E S S E E E E E E   E S S E E E E E E
|-------------------|-------------------|
|-------------------|-------------------|
|-3-----3-3-3-3-3-3-|-------------------|
|-3-3-3-3-3-3-3-3-3-|-0-----0-0-0-0-0-0-|
|-1-1-1-1-1-1-1-1-1-|-0-0-0-0-0-0-0-0-0-|
|-------------------|-0-0-0-0-0-0-0-0-0-|
|
| W                   W
|-------------------|-------------------|
|-------------------|-------------------|
|-------------------|-------------------|
|-------------------|-------------------|
|-------------------|-------------------|
|-------------------|-------------------|


                      1.               2.
  E S S E E E E E E   E E E E H        E  E E E Q  Q
|-------------------|---------------||-----------------||
|-------------------|--------------o||-----------------||
|-5-----5-5-5-5-5-5-|-4-4-4-4-------||-4--4-4-4-4--4---||
|-5-5-5-5-5-5-5-5-5-|-4-4-4-4-------||-4--4-4-4-4--4---||
|-3-3-3-3-3-3-3-3-3-|-2-2-2-2------o||-2--2-2-2-2--2---||
|-------------------|---------------||-----------------||
|
| W                   W                H.          Q
|-------------------|---------------||-----------------||
|-------------------|--------------o||-----------------||
|-------------------|---------------||-----------------||
|-------------------|---------------||-------------x\--||
|-------------------|--------------o||-------------x\--||
|-------------------|---------------||-------------x\--||


  Gtr I
  PM|     PM          PM  PM
  E E E E E E E E   E E E E  E E  E E
|-----------------|-------------------|
|-----------------|-------------------|
|-----------------|-------------------|
|---------------7p|=6-----------------|
|-----8p5---5h8---|-----8---10p8------|
|-0-0-----0-------|---0---0------10p7-|
|
| Gtr II
| PM|     PM          PM  PM
| E E E E E E E E   E E E E  E E  E E
|-----------------|-------------------|
|-----------------|-------------------|
|-----------------|-------------------|
|---------------7p|=6-----------------|
|-----8p5---5h8---|-----8---10p8------|
|-0-0-----0-------|---0---0------10p7-|


  PM|     PM           PM------------|
  E E E E E E E  E     S S E E   S S e  Q.
|--------------------|---------------------------||
|--------------------|---------------------------||
|--------------------|---------------------------||
|----------------7\--|------------------3\-------||
|-----8p5---5h8------|-0-0-0-0---0-0-3--3\-------||
|-0-0-----0----------|-0-0-0-0---0-0-0--3\-------||
|
| PM|     PM           PM------------|
| E E E E E E E  E     E   E S S E   E  Q.
|--------------------|---------------------------||
|--------------------|---------------------------||
|--------------------|---------------------------||
|---------------[7]\-|-----------------[3]b5\----||
|-----8p5---5h8------|-0---0-0-0-0---0-----------||
|-0-0-----0----------|-0---0-0-0-0---0-----------||


 Preverse
  Gtrs I, II
               PM------|
  Wx7          E E E E E Q.
|------------|----------------||
|------------|----------------||
|------------|----------------||
|------------|-----------3----||
|------------|-0-0-0-0-0-3----||
|------------|-0-0-0-0-0-3----||


   Verse 2
    Gtr I
     PM-|       PM          PM  PM
     E   E  E E E E E E   E E E E  E E  E E
||----------------------|-------------------|
||o---------------------|-------------------|
||----------------------|-------------------|
||--------------------7p|=6-----------------|
||o---------8p5---5h8---|-----8---10p8------|
||---0---0------0-------|---0---0------10p7-|
|
|   Gtr II
|           PM------------|
|    E   E  H.            W
||----------------------|-------------------|
||o---------------------|-------------------|
||----------------------|-------------------|
||--(3)p(2)-------------|-------------------|
||o--0---0--------------|-------------------|
||---0---0--------------|-------------------|


   PM-|       PM          PM  PM
   E   E  E E E E E E   E E E E  E E  E E
|---------------------|--------------------|
|---------------------|--------------------|
|---------------------|--------------------|
|-------------------7p|=6------------------|
|---------8p5---5h8---|-----8---10p8-------|
|--0---0------0-------|---0---0------10p7--|
|
|         PM
|  E   E  H.            W
|---------------------|--------------------|
|---------------------|--------------------|
|---------------------|--------------------|
|-(3)p(2)-------------|--------------------|
|--0---0--------------|--------------------|
|--0---0--------------|--------------------|


   PM-|       PM          PM  PM
   E   E  E E E E E E   E E E E  E E  E E
|---------------------|-------------------|
|---------------------|-------------------|
|---------------------|-------------------|
|-------------------7p|=6-----------------|
|---------8p5---5h8---|-----8---10p8------|
|--0---0------0-------|---0---0------10p7-|
|
|  E   E  H.            W
|---------------------|-------------------|
|---------------------|-------------------|
|---------------------|-------------------|
|-(3)p(2)-------------|-------------------|
|--0---0--------------|-------------------|
|--0---0--------------|-------------------|


  PM|     PM         PM------------|
  E E E E E E E E    S S E E   S S e  Q.
|------------------|---------------------------||
|------------------|--------------------------o||
|------------------|---------------------------||
|---------------7\-|------------------3--------||
|-----8p5---5h8----|-0-0-0-0---0-0-3--3-------o||
|-0-0-----0--------|-0-0-0-0---0-0-0--3--------||
|
| <
| PM-------------------------------|
| E E E E E E E E    E   E S S E   E  Q.
|------------------|---------------------------||
|------------------|--------------------------o||
|------------------|---------------------------||
|------------------|-----------------[3]b5-----||
|------------------|-0---0-0-0-0---0----------o||
|-0-0-0-0-0-0-0-0--|-0---0-0-0-0---0-----------||


    PM|     PM          PM  PM
    E E E E E E E E   E E E E  E E  E E
||------------------|-------------------|
||o-----------------|-------------------|
||------------------|-------------------|
||----------------7p|=6-----------------|
||o-----8p5---5h8---|-----8---10p8------|
||--0-0-----0-------|---0---0------10p7-|
|
|   Gtr II
|   E E H.            W
||------------------|-------------------|
||o-----------------|-------------------|
||------------------|-------------------|
||------------------|-------------------|
||o---0-------------|-------------------|
||--0-0-------------|-------------------|


  PM|     PM          PM  PM
  E E E E E E E E   E E E E  E E  E E
|-----------------|---------------------||
|-----------------|--------------------o||
|-----------------|---------------------||
|---------------7p|=6-------------------||
|-----8p5---5h8---|-----8---10p8-------o||
|-0-0-----0-------|---0---0------10p7---||
|
| E E H.            W
|-----------------|---------------------||
|-----------------|--------------------o||
|-----------------|---------------------||
|-----------------|---------------------||
|---0-------------|--------------------o||
|-0-0-------------|---------------------||


          PM       PM         PM       ~~
    E  E  E  E  E  E  E  E    E  E  E  E  +E   Q.
|--------------------------|------------------------||
|--------------------------|------------------------||
|--------------------------|------------------------||
|--------------------------|------------------------||
|-/13p10----12p10----13p10-|----12p10---------------||
|--------12-------12-------|-12-------12-(12)\------||
|
|         PM       PM         PM
|   E  E  E  E  E  E  E  E    E  E  E  E   H
|--------------------------|------------------------||
|--------------------------|------------------------||
|--------------------------|------------------------||
|--12p=8----10p=8----12p=8-|----10p=8--0------------||
|--------12-------12-------|-12--------0------------||
|--------------------------|-----------0------------||


 Chorus 2
  Gtrs I, II
  E S S E E E E E E   E S S E E E E E E
|-------------------|-------------------|
|-------------------|-------------------|
|-3-----3-3-3-3-3-3-|-------------------|
|-3-3-3-3-3-3-3-3-3-|-0-----0-0-0-0-0-0-|
|-1-1-1-1-1-1-1-1-1-|-0-0-0-0-0-0-0-0-0-|
|-------------------|-0-0-0-0-0-0-0-0-0-|


  E S S E E E E E E   E S S E E E E E E
|-------------------|-------------------|
|-------------------|-------------------|
|-5-----5-5-5-5-5-5-|-------------------|
|-5-5-5-5-5-5-5-5-5-|-5-----5-5-5-5-5-5-|
|-3-3-3-3-3-3-3-3-3-|-5-5-5-5-5-5-5-5-5-|
|-------------------|-5-5-5-5-5-5-5-5-5-|


  E S S E E E E E E   E S S E E E E E E   E S S E E E E E E   E E E E H
|-------------------|-------------------|-------------------|--------------|
|-------------------|-------------------|-------------------|--------------|
|-3-----3-3-3-3-3-3-|-------------------|-5-----5-5-5-5-5-5-|-4-4-4-4------|
|-3-3-3-3-3-3-3-3-3-|-0-----0-0-0-0-0-0-|-5-5-5-5-5-5-5-5-5-|-4-4-4-4------|
|-1-1-1-1-1-1-1-1-1-|-0-0-0-0-0-0-0-0-0-|-3-3-3-3-3-3-3-3-3-|-2-2-2-2------|
|-------------------|-0-0-0-0-0-0-0-0-0-|-------------------|--------------|


    Gtrs I, II
     E  S S  E  E  E E  E E    E S S E E E E E E
||--------------------------|--------------------|
||o-------------------------|--------------------|
||---3-------3--3--3-3--3-3-|--------------------|
||---3--3-3--3--3--3-3--3-3-|--0-----0-0-0-0-0-0-|
||o--1--1-1--1--1--1-1--1-1-|--0-0-0-0-0-0-0-0-0-|
||--------------------------|--0-0-0-0-0-0-0-0-0-|
|
|   Gtr III
|    E  E    E  E  Q    Q      W
||--------------------------|--------------------|
||o------------10h11---10---|-10-----------------|
||----------10--------------|--------------------|
||-----12-------------------|--------------------|
||o-13----------------------|--------------------|
||--------------------------|--------------------|


   E  S S  E  E  E E  E E    E S S E E E E E E
|-------------------------|---------------------|
|-------------------------|---------------------|
|--5-------5--5--5-5--5-5-|---------------------|
|--5--5-5--5--5--5-5--5-5-|--5-----5-5-5-5-5-5--|
|--3--3-3--3--3--3-3--3-3-|--5-5-5-5-5-5-5-5-5--|
|-------------------------|--5-5-5-5-5-5-5-5-5--|
|
|  E  E    E  E  Q    Q      W
|-------------------------|---------------------|
|------------10h11---10---|-10------------------|
|---------10--------------|---------------------|
|----12-------------------|---------------------|
|-13----------------------|---------------------|
|-------------------------|---------------------|


   E  S S  E  E  E E  E E    E S S E E E E E E
|-------------------------|--------------------|
|-------------------------|--------------------|
|--3-------3--3--3-3--3-3-|--------------------|
|--3--3-3--3--3--3-3--3-3-|--0-----0-0-0-0-0-0-|
|--1--1-1--1--1--1-1--1-1-|--0-0-0-0-0-0-0-0-0-|
|-------------------------|--0-0-0-0-0-0-0-0-0-|
|
|  E  E    E  E  Q    Q      W
|-------------------------|--------------------|
|------------10h11---10---|-10-----------------|
|---------10--------------|--------------------|
|----12-------------------|--------------------|
|-13----------------------|--------------------|
|-------------------------|--------------------|


                            1.                2.
   E  S S  E  E  E E  E E    E E E E H         E  E E E E E Q
|-------------------------|----------------||-------------------||
|-------------------------|---------------o||-------------------||
|--5-------5--5--5-5--5-5-|--4-4-4-4-------||--4--4-4-4-4-4-4---||
|--5--5-5--5--5--5-5--5-5-|--4-4-4-4-------||--4--4-4-4-4-4-4---||
|--3--3-3--3--3--3-3--3-3-|--2-2-2-2------o||--2--2-2-2-2-2-2---||
|-------------------------|----------------||-------------------||
|
|  E  E    E  E  Q    Q      W                 H.           Q
|-------------------------|----------------||-------------------||
|------------10h11---10---|-10------------o||-10----------------||
|---------10--------------|----------------||-------------------||
|----12-------------------|----------------||---------------x\--||
|-13----------------------|---------------o||---------------x\--||
|-------------------------|----------------||---------------x\--||


 Interlude
  Gtrs I, II
                       >
    W                 +W           +W            +W
|------------------|-------------|-------------|---------------|
|------------------|-------------|-------------|---------------|
|---3--------------|--(3)--------|-(3)---------|-(3)-----------|
|---3--------------|--(3)--------|-(3)---------|-(3)-----------|
|---1--------------|--(1)--------|-(1)---------|-(1)-----------|
|------------------|-------------|-------------|---------------|
|
| Gtr III
|   W           a     +W            H.      Q    +Q   H    Q
|------------------|-------------|-------------|---------------|
|------------------|-------------|-10-------8--|-(8)--6--------|
|--10---------(10)-|-(10)--------|-------------|-----------7---|
|--10----------10--|-(10)--------|-------------|---------------|
|------------------|-------------|-------------|---------------|
|------------------|-------------|-------------|---------------|
|
| Gtr IV
|   W                 +W            W            +W
|------------------|-------------|-------------|---------------|
|------------------|-------------|-------------|---------------|
|-^(3)-------------|--(3)--------|-^7----------|-(7)-----------|
|-^(3)-------------|--(3)--------|-^7----------|-(7)-----------|
|-^(1)-------------|--(1)--------|-^5----------|-(5)-----------|
|------------------|-------------|-------------|---------------|


  Gtr III
   ~~~~~~~~~~~~~~~~                       ~~~
  +W           +H     a H      W         +W
|------------|--------------|----------|--------|
|------------|--------5h6---|----------|--------|
|-(7)--------|-(7)----------|--5-------|-(5)----|
|------------|--------------|----------|--------|
|------------|--------------|----------|--------|
|------------|--------------|----------|--------|
|
| Gtr IV
|  W           +W              W         +W
|------------|--------------|----------|--------|
|------------|--------------|----------|--------|
|-^3---------|-(3)----------|-^7-------|-(7)----|
|-^3---------|-(3)----------|-^7-------|-(7)----|
|-^1---------|-(1)----------|-^5-------|-(5)----|
|------------|--------------|----------|--------|


   W          +H     a  H    a     W           H     H
|--8--------|-(8)---(8)S6---(6)S|==5--------|--5----------|
|-----------|-------------------|-----------|--------6----|
|-----------|-------------------|-----------|-------------|
|-----------|-------------------|-----------|-------------|
|-----------|-------------------|-----------|-------------|
|-----------|-------------------|-----------|-------------|
|
|  W          +W                   W          +W
|-----------|-------------------|-----------|-------------|
|-----------|-------------------|-----------|-------------|
|-^3--------|-(3)---------------|-^7--------|-(7)---------|
|-^3--------|-(3)---------------|-^7--------|-(7)---------|
|-^1--------|-(1)---------------|-^5--------|-(5)---------|
|-----------|-------------------|-----------|-------------|


   W          +H     H       a  W          +W
|--8--------|-(8)----6----|-10s13-------|-(13)----|
|-----------|-------------|-------------|---------|
|-----------|-------------|-------------|---------|
|-----------|-------------|-------------|---------|
|-----------|-------------|-------------|---------|
|-----------|-------------|-------------|---------|
|
|  W          +W             W             +W
|-----------|-------------|-------------|---------|
|-----------|-------------|-------------|---------|
|-^3--------|-(3)---------|-^7----------|--(7)----|
|-^3--------|-(3)---------|-^7----------|--(7)----|
|-^1--------|-(1)---------|-^5----------|--(5)----|
|-----------|-------------|-------------|---------|


                          ~~~                     ~~~~
   Q    H    Q      +Q    H.         W           +W
|-----/20---18---|-(18)-----------|-----------|---------|
|----------------|-------18-------|-18--------|-(18)----|
|----------------|----------------|-----------|---------|
|----------------|----------------|-----------|---------|
|----------------|----------------|-----------|---------|
|----------------|----------------|-----------|---------|
|
|  W                +W               W           +W
|----------------|----------------|-----------|---------|
|----------------|----------------|-----------|---------|
|-^3-------------|--(3)-----------|-^7--------|--(7)----|
|-^3-------------|--(3)-----------|-^7--------|--(7)----|
|-^1-------------|--(1)-----------|-^5--------|--(5)----|
|----------------|----------------|-----------|---------|


                                                       ~~~~
   H     H       H      H                 W           +W
|-------------|------------------------|-----------|---------||
|-18----17----|-15-----13--------------|-13--------|-(13)----||
|-------------|------------------------|-----------|---------||
|-------------|------------------------|-----------|---------||
|-------------|------------------------|-----------|---------||
|-------------|------------------------|-----------|---------||
|
|  W            +H      E   E   E   E     W           +W
|-------------|------------------------|-----------|---------||
|-------------|------------------------|-----------|---------||
|-^3----------|-(3)------------(3)-----|-^7--------|--(7)----||
|-^3----------|-(3)--------(3)-----(3)-|-^7--------|--(7)----||
|-^1----------|-(1)----(1)-------------|-^5--------|--(5)----||
|-------------|------------------------|-----------|---------||


 Bridge
  Gtr III
  E E E E E E E E   E  E E E E E Q     E E E   E E E  E E   E  E E E  E E q
|-----------------|-----------------|---------------------|------------------|
|-----------------|-----------------|---------------------|------------------|
|-----------------|-----------------|---------------------|------------------|
|-8p7p0-8p7p0-8p7p|=0--8p7p0-8p7p0--|-10p7p0--10p7p0-10p7p|=0-10p7p0-10p7p0--|
|-----------------|-----------------|---------------------|------------------|
|-----------------|-----------------|---------------------|------------------|
|
| Gtrs I, II
| W                 H.           Q     q   H.               W
|-----------------|-----------------|---------------------|------------------|
|-----------------|-----------------|---------------------|------------------|
|-----------------|-----------------|---------------------|------------------|
|-----------------|--------------0--|--0------------------|------------------|
|-----------------|--------------0--|--0------------------|------------------|
|-----------------|--------------0--|--0------------------|------------------|


  E E E E E E E E   E E E E E E Q     E E E  E E E  E E   E   E E E  E E q
|-----------------|----------------|--------------------|--------------------|
|-----------------|----------------|--------------------|--------------------|
|-----------------|----------------|--------------------|--------------------|
|-8p7p0-8p7p0-8p7p|=0-8p7p0-8p7p0--|-12p8p0-10p8p0-12p8p|=0--10p8p0-12p8p0---|
|-----------------|----------------|--------------------|--------------------|
|-----------------|----------------|--------------------|--------------------|
|
|                                                                        \1
| W                 W                 W                   H.             Q
|-----------------|----------------|--------------------|--------------------|
|-----------------|----------------|--------------------|--------------------|
|-----------------|----------------|--------------------|--------------------|
|-----------------|----------------|--------------------|--------------------|
|-----------------|----------------|--------------------|--------------------|
|-----------------|----------------|--------------------|----------------0---|


  Gtrs I, II
                                PM|
  E E E E E E E E   E E E E E E E E    E E E  E E E  E E   E  E E E  E E E E
|-----------------|-----------------|--------------------|-------------------|
|-----------------|-----------------|--------------------|-------------------|
|-----------------|-----------------|--------------------|-------------------|
|-8p7p0-8p7p0-8p7p|=0-8p7p0-8p7-----|-10p7p0-10p7p0-10p7p|=0-10p7p0-10p7p0-0-|
|-----------------|-------------8-8-|--------------------|-------------------|
|-----------------|-----------------|--------------------|-------------------|


                                                                    PM----|
  E E E E E E E E   E E E E E E E E    E E E  E E E  E E   E  E E E E E E E
|-----------------|-----------------|--------------------|------------------|
|-----------------|-----------------|--------------------|------------------|
|-----------------|-----------------|--------------------|------------------|
|-8p7p0-8p7p0-8p7p|=0-8p7p0-8p7p0-8h|=12p8p0-12p8p0-12p8p|=0-12p8p0---------|
|-----------------|-----------------|--------------------|----------0-0-0-0-|
|-----------------|-----------------|--------------------|----------0-0-0-0-|


 Piano/Clean Duet
  Gtrs I, II       
   q   H.           H      H        W           +W
|----------------|---------------|------------|------------------|
|----------------|---------------|------------|------------------|
|----------------|---------------|------------|------------------|
|--0-------------|---------------|------------|------------------|
|--0-------------|--------(1)----|-(0)--------|-(0)--------------|
|--0-------------|-(0)----(0)----|-(0)--------|-(0)--------------|
|
| Gtr IV
|  H.         Q     H      H        W            Q    Q   Q   Q
|-10---------12--|-13-----18-----|-17---------|-18---17--15--13--|
|----------------|---------------|------------|------------------|
|----------------|---------------|------------|------------------|
|----------------|---------------|------------|------------------|
|----------------|---------------|------------|------------------|
|----------------|---------------|------------|------------------|


                                             
                                               PM-----|
  +W             +W             +W             E  E E E   H
|--------------|--------------|------------|--------------------|
|--------------|--------------|------------|--------------------|
|--------------|--------------|------------|--------------------|
|--------------|--------------|------------|------------/12\----|
|-(0)----------|-(0)----------|-(0)--------|---0--0-0-0-/12\----|
|-(0)----------|-(0)----------|-(0)--------|---0--0-0-0-/12\----|
|
|  H.       Q     H      H       W            +W
|-10-------12--|-13-----18----|-17---------|-(17)---------------|
|--------------|--------------|------------|--------------------|
|--------------|--------------|------------|--------------------|
|--------------|--------------|------------|--------------------|
|--------------|--------------|------------|--------------------|
|--------------|--------------|------------|--------------------|


 Chorus 3
  Gtrs I, II
  E S S E E E E E E   E S S E E E E E E
|-------------------|-------------------|
|-------------------|-------------------|
|-3-----3-3-3-3-3-3-|-------------------|
|-3-3-3-3-3-3-3-3-3-|-0-----0-0-0-0-0-0-|
|-1-1-1-1-1-1-1-1-1-|-0-0-0-0-0-0-0-0-0-|
|-------------------|-0-0-0-0-0-0-0-0-0-|


  E S S E E E E E E   E S S E E E E E E
|-------------------|-------------------|
|-------------------|-------------------|
|-5-----5-5-5-5-5-5-|-------------------|
|-5-5-5-5-5-5-5-5-5-|-5-----5-5-5-5-5-5-|
|-3-3-3-3-3-3-3-3-3-|-5-5-5-5-5-5-5-5-5-|
|-------------------|-5-5-5-5-5-5-5-5-5-|


  E S S E E E E E E   E S S E E E E E E   E S S E E E E E E   E E E E H
|-------------------|-------------------|-------------------|--------------|
|-------------------|-------------------|-------------------|--------------|
|-3-----3-3-3-3-3-3-|-------------------|-5-----5-5-5-5-5-5-|-4-4-4-4------|
|-3-3-3-3-3-3-3-3-3-|-0-----0-0-0-0-0-0-|-5-5-5-5-5-5-5-5-5-|-4-4-4-4------|
|-1-1-1-1-1-1-1-1-1-|-0-0-0-0-0-0-0-0-0-|-3-3-3-3-3-3-3-3-3-|-2-2-2-2------|
|-------------------|-0-0-0-0-0-0-0-0-0-|-------------------|--------------|


  Gtrs I, II
   E  S S  E  E  E E  E E    E  S S  E  E  E E  E E
|-------------------------|-------------------------|
|-------------------------|-------------------------|
|--3-------3--3--3-3--3-3-|-------------------------|
|--3--3-3--3--3--3-3--3-3-|--0-------0--0--0-0--0-0-|
|--1--1-1--1--1--1-1--1-1-|--0--0-0--0--0--0-0--0-0-|
|-------------------------|--0--0-0--0--0--0-0--0-0-|
|
| Gtr III
|  E  E    E  E  Q    Q      E  E    E  E  Q    Q
|-------------------------|-------------------------|
|------------10h11---10---|------------10h11---10---|
|---------10--------------|---------10--------------|
|----12-------------------|----12-------------------|
|-13----------------------|-13----------------------|
|-------------------------|-------------------------|


   E  S S  E  E  E E  E E    E S S E E E E E E
|-------------------------|----------------------||
|-------------------------|----------------------||
|--5-------5--5--5-5--5-5-|----------------------||
|--5--5-5--5--5--5-5--5-5-|--5-----5-5-5-5-5-5---||
|--3--3-3--3--3--3-3--3-3-|--5-5-5-5-5-5-5-5-5---||
|-------------------------|--5-5-5-5-5-5-5-5-5---||
|
|  E  E    E  E  Q    Q      W
|-------------------------|----------------------||
|------------10h11---10---|-10-------------------||
|---------10--------------|----------------------||
|----12-------------------|----------------------||
|-13----------------------|----------------------||
|-------------------------|----------------------||


 Guitar Solo
  E  S S E  E E E  E  E    E S S  E  E       E   E  E     E
|-----------------------|-----------------------------------|
|-----------------------|-----------------------------------|
|-3------3--3-3-3--3--3-|--5------5--5-------5---5--5-----5-|
|-3--3-3-3--3-3-3--3--3-|--5-5-5--5--5-------5---5--5-----5-|
|-1--1-1-1--1-1-1--1--1-|--3-3-3--3--3-------3---3--3-----3-|
|-----------------------|-----------------------------------|
|
|        PM     PM         ~~
| E  E   E  E E E  E  E    Q      E  E      +E   E  Q
|-----------------------|--------12-12pb13r(12)-13-13pb15r==|
|-----------------10h11-|-10--------------------------------|
|----------10p9---------|-----------------------------------|
|-8h10---8------8-------|-----------------------------------|
|-----------------------|-----------------------------------|
|-----------------------|-----------------------------------|


    E  S S E  E E  E E E     E  E E E H
|------------------------|-----------------|
|------------------------|-----------------|
|---6------6--6-6--6-6-6-|---7--7-7-7-5----|
|---6--6-6-6--6-6--6-6-6-|---7--7-7-7-5----|
|---4--4-4-4--4-4--4-4-4-|---5--5-5-5-3----|
|------------------------|-----------------|
|
|   ~~~~           ~~~~~~~~~~~~~
|  +H         Q    Q        +W
|-(13)-------13s==17-----|-(17)------------|
|------------------------|-----------------|
|------------------------|-----------------|
|------------------------|-----------------|
|------------------------|-----------------|
|------------------------|-----------------|


   E S S  E    E     E  E  E         E       E  S S  E    E     E  E  E    E
|-----------------------------------------|-------------------------------------|
|-----------------------------------------|-------------------------------------|
|--3------3----3-----3--3--3---------3----|-------------------------------------|
|--3-3-3--3----3-----3--3--3---------3----|--0-------0----0-----0--0--0----0----|
|--1-1-1--1----1-----1--1--1---------1----|--0--0-0--0----0-----0--0--0----0----|
|-----------------------------------------|--0--0-0--0----0-----0--0--0----0----|
|
|         |---3---|        |-----3------|            |---3---|        |---3---|
|  Q      E  E    E  E  E  E     +E     E    E  E    E  E    E  E  E  E  E    E
|-17-----17p15------15-15S13b15r(13)p==12-|-13-13---13-12---10-12-12-12-10------|
|----------------18-----------------------|----------------------------------13-|
|-----------------------------------------|-------------------------------------|
|-----------------------------------------|-------------------------------------|
|-----------------------------------------|-------------------------------------|
|-----------------------------------------|-------------------------------------|


   E  S S E  E     E     E     E     E       E     S  S  E     E   E     E   E     E
|-----------------------------------------|---------------------------------------------------|
|-----------------------------------------|---------------------------------------------------|
|--5------5--5-----5-----5-----5-----5----|---------------------------------------------------|
|--5--5-5-5--5-----5-----5-----5-----5----|--5-----------5-----5---5-----5---5-----5----------|
|--3--3-3-3--3-----3-----3-----3-----3----|--5-----5--5--5-----5---5-----5---5-----5----------|
|-----------------------------------------|--5-----5--5--5-----5---5-----5---5-----5----------|
|
|  ~~~       PM------------|
|  Q.        S  S  S  S  S  S  S  S  S  S    S  S  S  S  S  S  E   Q        +E.       +S
|-----------------------------------------|-------------------10-[10]b12r==(10)b12r==(10)\----|
|-----------------------------10-10-11-11-|-10-10-11-11-13-13---------------------------------|
|-----------------------10-10-------------|---------------------------------------------------|
|-12--------12-12-12-12-------------------|---------------------------------------------------|
|-----------------------------------------|---------------------------------------------------|
|-----------------------------------------|---------------------------------------------------|


   Outro
    Gtrs I, II
    PM|     PM          PM  PM
    E E E E E E E E   E E E E  E E  E E
||------------------|-------------------|
||o-----------------|-------------------|
||------------------|-------------------|
||----------------7p|=6-----------------|
||o-----8p5---5h8---|-----8---10p8------|
||--0-0-----0-------|---0---0------10p7-|


                    1.                    2.
  PM|     PM          PM  PM
  E E E E E E E E   E E E E  E E  E E     E E E E H
|-----------------|--------------------||--------------*|
|-----------------|-------------------o||--------------*|
|-----------------|--------------------||--------------*|
|---------------7p|=6------------------||-6-----0------*|
|-----8p5---5h8---|-----8---10p8------o||---8-7-0------*|
|-0-0-----0-------|---0---0------10p7--||-------0------*|




--------------------------------------------------------------------------------


Duration Legend
---------------
W - whole; H - half; Q - quarter; E - 8th; S - 16th; T - 32nd; X - 64th; a - acciaccatura
+ - note tied to previous; . - note dotted; .. - note double dotted
Uncapitalized letters represent notes that are staccato (1/2 duration)
Irregular groupings are notated above the duration line
Duration letters will always appear directly above the note/fret number it represents the
duration for.  Duration letters with no fret number below them represent rests.  Multi-
bar rests are notated in the form Wxn, where n is the number of bars to rest for.  Low
melody durations appear below the staff

Tablature Legend
----------------
 h   - hammer-on
 p   - pull-off
 b   - bend
 pb  - pre-bend
 r   - bend release (if no number after the r, then release immediately)
 /\  - slide into or out of (from/to "nowhere")
 s   - legato slide
 S   - shift slide
 - natural harmonic
[n]  - artificial harmonic
n(n) - tapped harmonic
 ~   - vibrato
 tr  - trill
 T   - tap
 TP  - trem. picking
 PM  - palm muting
\n/  - tremolo bar dip; n = amount to dip
 \n  - tremolo bar down
 n/  - tremolo bar up
/n\  - tremolo bar inverted dip
 =   - hold bend; also acts as connecting device for hammers/pulls
 <> - volume swell (louder/softer)
 x   - on rhythm slash represents muted slash
 o   - on rhythm slash represents single note slash

Misc Legend
-----------
 |  - bar
||  - double bar
||o - repeat start
o|| - repeat end
*|  - double bar (ending)
 :  - bar (freetime)
 $  - Segno
 &  - Coda
Tempo markers -  = BPM(8/16=s8/s16), where s8 = swing 8ths, s16 = swing 16ths
Suggest correction
Creating personal tab
Creating personal tab
You can edit any tab online and save it as your Personal.

You can edit, replace or remove any tab part or add personal notes – all changes will be seen only by you.

Personal tabs can be accessed anytime from any device, even offline.
Learn more »
comments
print report bad tab
5 comments total. Showing first comments.
0 reply
SLASHer77 383 Aug 22, 2007 05:18 AM

Ya, Im not sure about this one.

0 reply
arsonite 171 Sep 02, 2007 05:49 PM

This one's worth five stars. Good job!

0 reply
dicer4 325 Dec 03, 2007 09:13 AM

this ones not that right,,,

guest
You may want to rate the tab now too:
select rating
Wanna post a correction for this tab? Suggest correction