Oops, an error
Loading. Please wait.

Becoming The Bull tab

version 6
version 6
by Atreyu
2,878 views 3 this week
no commentswrite comment
1 2 3 4 5
x 4
add to favorites
×
Save as Personal and add changes to this tab that will be seen only by you. Learn more ›
×
You can save this tab as Personal to edit and correct it or add notes. All changes will be seen only by you. Learn more »
launch autoscroll
font size
0
reset
how to read this tab
guitar tuner
edit
Autoscroll
slow
fast
+/-
esc
set tempo
stop
-------------------------------------------------------------------------------
			     SONG NAME - Band Name
-------------------------------------------------------------------------------
Tabbed by:
Email:

Tuning:

|---------------------------------------------------------------------------|
|---------------------------------------------------------------------------|
|---------------------------------------------------------------------------|
|---------------------7-6-------------------------------7-6-----------------|
|-15\\------8-5---5-8-------8---10-8----------8-5---5-8-------8---10-8------|
|-15\\--0-0--------------------------10-8-0-0--------------------------10-8-|
        . .                               . .

|----------------------------------------------------------------------|
|----------------------------------------------------------------------|
|----------------------------------------------------------------------|
|---------------7-6-------------------------------7-----------3--------|
|-----8-5---5-8-------8---10-8----------8-5---5-8---0-0-0-0-0-3--------|
|-0-0--------------------------10-8-0-0-------------0-0-0-0-0-3--------|
  . .                               . .             . . . . .

|----------------------------------------------------------------------|
|----------------------------------------------------------------------|
|----------------------------------------------------------------------|
|---------------7-6-------------------------------7-6------------------|
|-----8-5---5-8-------8---10-8----------8-5---5-8-------8---10-8-------|
|-0-0--------------------------10-8-0-0--------------------------10-8--|
  . .                               . .

|----------------------------------------------------------------------|
|----------------------------------------------------------------------|
|----------------------------------------------------------------------|
|---------------7-6-------------------------------7-----------5b~------|
|-----8-5---5-8-------8---10-8----------8-5---5-8---0-0-0-0-0----------|
|-0-0--------------------------10-8-0-0-------------0-0-0-0-0----------|
  . .                               . .             . . . . . *

|----------------------------------------------------------------------|
|----------------------------------------------------------------------|
|----------------------------------------------------------------------|
|---------------7-6-------------------------------7-6------------------|
|-----8-5---5-8-------8---10-8----------8-5---5-8-------8---10-8-------|
|-0-0--------------------------10-8-0-0--------------------------10-8--|
  . .                               . .

|----------------------------------------------------------------------|
|----------------------------------------------------------------------|
|----------------------------------------------------------------------|
|---------------7-6-------------------------------7-----------5b~------|
|-----8-5---5-8-------8---10-8----------8-5---5-8---0-0-0-0-0----------|
|-0-0--------------------------10-8-0-0-------------0-0-0-0-0----------|
  . .                               . .             . . . . . *

|----------------------------------------------------------------------|
|----------------------------------------------------------------------|
|----------------------------------------------------------------------|
|---------------7-6-------------------------------7-6------------------|
|-----8-5---5-8-------8---10-8----------8-5---5-8-------8---10-8-------|
|-0-0--------------------------10-8-0-0--------------------------10-8--|
  . .                               . .

|----------------------------------------------------------------------|
|----------------------------------------------------------------------|
|----------------------------------------------------------------------|
|---------------7-6-------------------------------7-6------------------|
|-----8-5---5-8-------8---10-8----------8-5---5-8-------8---10-8-------|
|-0-0--------------------------10-8-0-0--------------------------10-8--|
  . .                               . .

|-----------------------------------|
|-----------------------------------|
|-----------------------------------|
|-----------------------------------|
|-------------------------0-0-0-0---|
|-8-5-0-8-5-0-8-5-0-8-5-0-0-0-0-0---|
                          . . . .

|---------------------------------------------------------------------------|
|---------------------------------------------------------------------------|
|---------------------------------------------------------------------------|
|-8-8-8-8-8-8-8-8-0-0-0-0-0-0-0-0-10-10-10-10-10-10-10-10-5-5-5-5-5-5-5-5---|
|-8-8-8-8-8-8-8-8-0-0-0-0-0-0-0-0-10-10-10-10-10-10-10-10-5-5-5-5-5-5-5-5---|
|-8-8-8-8-8-8-8-8-0-0-0-0-0-0-0-0-10-10-10-10-10-10-10-10-5-5-5-5-5-5-5-5---|

|---------------------------------------------------------------------------|
|---------------------------------------------------------------------------|
|---------------------------------------------------------------------------|
|-8-8-8-8-8-8-8-8-0-0-0-0-0-0-0-0-10-10-10-10-10-10-10-10-9-9-9-9-X-X-X-X---|
|-8-8-8-8-8-8-8-8-0-0-0-0-0-0-0-0-10-10-10-10-10-10-10-10-9-9-9-9-X-X-X-X---|
|-8-8-8-8-8-8-8-8-0-0-0-0-0-0-0-0-10-10-10-10-10-10-10-10-9-9-9-9-X-X-X-X---|

|---------------------------------------------------------------------------|
|---------------------------------------------------------------------------|
|---------------------------------------------------------------------------|
|-8-8-8-8-8-8-8-8-0-0-0-0-0-0-0-0-10-10-10-10-10-10-10-10-5-5-5-5-5-5-5-5---|
|-8-8-8-8-8-8-8-8-0-0-0-0-0-0-0-0-10-10-10-10-10-10-10-10-5-5-5-5-5-5-5-5---|
|-8-8-8-8-8-8-8-8-0-0-0-0-0-0-0-0-10-10-10-10-10-10-10-10-5-5-5-5-5-5-5-5---|

|---------------------------------------------------------------------------|
|---------------------------------------------------------------------------|
|---------------------------------------------------------------------------|
|-8-8-8-8-8-8-8-8-0-0-0-0-0-0-0-0-10-10-10-10-10-10-10-10-9-9-9-9-9-9-9-9---|
|-8-8-8-8-8-8-8-8-0-0-0-0-0-0-0-0-10-10-10-10-10-10-10-10-9-9-9-9-9-9-9-9---|
|-8-8-8-8-8-8-8-8-0-0-0-0-0-0-0-0-10-10-10-10-10-10-10-10-9-9-9-9-9-9-9-9---|

|----------------------------------------------------------------------|
|----------------------------------------------------------------------|
|----------------------------------------------------------------------|
|---------------7-6-------------------------------7--------------------|
|-----8-5---5-8-------8---10-8----------8-5---5-8---0-0-0-0-0-8b~------|
|-0-0--------------------------10-8-0-0-------------0-0-0-0-0----------|
  . .                               . .             . . . . . *

|--------------------------------------------------------------------------------|
|--------------------------------------------------------------------------------|
|--------------------------------------------------------------------------------|
|---------------------------------------------------------------------------3----|
|-0-0-----0-0-----0---0-0-----0-0-----0-0-----0-0-----0---0-0-----0-0-0-0-0-3----|
|-0-0-----0-0-----0---0-0-----0-0-----0-0-----0-0-----0---0-0-----0-0-0-0-0-3----|
  . .     . .     .   . .     . .     . .     . .     .   . .     . . . . .

|----------------------------------------------------------------------|
|----------------------------------------------------------------------|
|----------------------------------------------------------------------|
|---------------7-6-------------------------------7-6------------------|
|-----8-5---5-8-------8---10-8----------8-5---5-8-------8---10-8-------|
|-0-0--------------------------10-8-0-0--------------------------10-8--|
  . .                               . .

|----------------------------------------------------------------------|
|----------------------------------------------------------------------|
|----------------------------------------------------------------------|
|---------------7-6-------------------------------7-6------------------|
|-----8-5---5-8-------8---10-8----------8-5---5-8-------8---10-8-------|
|-0-0--------------------------10-8-0-0--------------------------10-8--|
  . .                               . .

(w/ phaser)
|-----------------------------------|
|-----------------------------------|
|-----------------------------------|
|-----------------------------------|
|-------------------------0-0-0-0---|
|-8-5-0-8-5-0-8-5-0-8-5-0-0-0-0-0---|
                          . . . .

|---------------------------------------------------------------------------|
|---------------------------------------------------------------------------|
|---------------------------------------------------------------------------|
|-8-8-8-8-8-8-8-8-0-0-0-0-0-0-0-0-10-10-10-10-10-10-10-10-5-5-5-5-5-5-5-5---|
|-8-8-8-8-8-8-8-8-0-0-0-0-0-0-0-0-10-10-10-10-10-10-10-10-5-5-5-5-5-5-5-5---|
|-8-8-8-8-8-8-8-8-0-0-0-0-0-0-0-0-10-10-10-10-10-10-10-10-5-5-5-5-5-5-5-5---|

|---------------------------------------------------------------------------|
|---------------------------------------------------------------------------|
|---------------------------------------------------------------------------|
|-8-8-8-8-8-8-8-8-0-0-0-0-0-0-0-0-10-10-10-10-10-10-10-10-9-9-9-9-X-X-X-X---|
|-8-8-8-8-8-8-8-8-0-0-0-0-0-0-0-0-10-10-10-10-10-10-10-10-9-9-9-9-X-X-X-X---|
|-8-8-8-8-8-8-8-8-0-0-0-0-0-0-0-0-10-10-10-10-10-10-10-10-9-9-9-9-X-X-X-X---|

|---------------------------------------------------------------------------|
|---------------------------------------------------------------------------|
|---------------------------------------------------------------------------|
|-8-8-8-8-8-8-8-8-0-0-0-0-0-0-0-0-10-10-10-10-10-10-10-10-5-5-5-5-5-5-5-5---|
|-8-8-8-8-8-8-8-8-0-0-0-0-0-0-0-0-10-10-10-10-10-10-10-10-5-5-5-5-5-5-5-5---|
|-8-8-8-8-8-8-8-8-0-0-0-0-0-0-0-0-10-10-10-10-10-10-10-10-5-5-5-5-5-5-5-5---|

|---------------------------------------------------------------------------|
|---------------------------------------------------------------------------|
|---------------------------------------------------------------------------|
|-8-8-8-8-8-8-8-8-0-0-0-0-0-0-0-0-10-10-10-10-10-10-10-10-9-9-9-9-9-9-9-9---|
|-8-8-8-8-8-8-8-8-0-0-0-0-0-0-0-0-10-10-10-10-10-10-10-10-9-9-9-9-9-9-9-9---|
|-8-8-8-8-8-8-8-8-0-0-0-0-0-0-0-0-10-10-10-10-10-10-10-10-9-9-9-9-9-9-9-9---|

|---------------------------------------------------------------------------|
|---------------------------------------------------------------------------|
|---------------------------------------------------------------------------|
|-8-8-8-8-8-8-8-8-0-0-0-0-0-0-0-0-10-10-10-10-10-10-10-10-5-5-5-5-5-5-5-5---|
|-8-8-8-8-8-8-8-8-0-0-0-0-0-0-0-0-10-10-10-10-10-10-10-10-5-5-5-5-5-5-5-5---|
|-8-8-8-8-8-8-8-8-0-0-0-0-0-0-0-0-10-10-10-10-10-10-10-10-5-5-5-5-5-5-5-5---|

|---------------------------------------------------------------------------|
|-11------------------------------------------------------------------------|
|-10-------/14-----\12--\10--\7-----/10--\5---------------------------------|
|-8-------------------------------------------------------------------------|
|---------------------------------------------------------------------------|
|---------------------------------------------------------------------------|

 (2:22)
|-18-----17-----------------------------------------------------------------|
|---------------18-----15-------(15)----/18-----17--------------------------|
|------------------------------------------------------17---------(17)------|
|---------------------------------------------------------------------------|
|---------------------------------------------------------------------------|
|---------------------------------------------------------------------------|

|---------------------------------------------------------------------------|
|---------------------------------------------------------------------------|
|---------------------------------------------------------------------------|
|---------------------------------------------------------------------------|
|----------------------------------------------------------------3----------|
|-8-5-0-8-5-0-8-5-0-8-5-0-8-5-0-5-10-7-0-10-7-0-10-7-0-10-7-0-10-3----------|

|---------------------------------------------------------------------------|
|---------------------------------------------------------------------------|
|---------------------------------------------------------------------------|
|---------------------------------------------------------------------------|
|---------------------------------------------------------------------------|
|-8-5-0-8-5-0-8-5-0-8-5-0-8-5-0-5-11-8-0-11-8-0-11-8-0-11-8-0-11-8-0-5------|

|---------------------------------------------------------------------------|
|---------------------------------------------------------------------------|
|---------------------------------------------------------------------------|
|---------------------------------------------------------------------------|
|---------------------------------------------------------------------------|
|-8-5-0-8-5-0-8-5-0-8-5-0-8-5-0-5-10-7-0-10-7-0-10-7-0-10-7-0-10-7-0-5------|

|---------------------------------------------------------------------------|
|---------------------------------------------------------------------------|
|---------------------------------------------------------------------------|
|--------------------------------------------------------------X--X--X------|
|--------------------------------------------------------------X--X--X------|
|-8-5-0-8-5-0-8-5-0-8-5-0-8-5-0-5-11-8-0-11-8-0-11-8-0-11-8-0--X--X--X------|


							    (3:01)
|---------------------------------------------------------------------------|
|---------------------------------------------------------------------------|
|---------------------------------------------------------------------------|
|-----------------------------------------------------------X-X-X-X-X-5\----|
|-----------------------------------------------------------X-X-X-X-X-5\----|
|-----------------------------------------------------------X-X-X-X-X-5\----|

|---------------------------------------------------------------------------|
|---------------------------------------------------------------------------|
|---------------------------------------------------------------------------|
|-8-8-8-8-8-8-8-8-0-0-0-0-0-0-0-0-10-10-10-10-10-10-10-10-5-5-5-5-5-5-5-5---|
|-8-8-8-8-8-8-8-8-0-0-0-0-0-0-0-0-10-10-10-10-10-10-10-10-5-5-5-5-5-5-5-5---|
|-8-8-8-8-8-8-8-8-0-0-0-0-0-0-0-0-10-10-10-10-10-10-10-10-5-5-5-5-5-5-5-5---|

|---------------------------------------------------------------------------|
|---------------------------------------------------------------------------|
|---------------------------------------------------------------------------|
|-8-8-8-8-8-8-8-8-0-0-0-0-0-0-0-0-10-10-10-10-10-10-10-10-9-9-9-9-X-X-X-X---|
|-8-8-8-8-8-8-8-8-0-0-0-0-0-0-0-0-10-10-10-10-10-10-10-10-9-9-9-9-X-X-X-X---|
|-8-8-8-8-8-8-8-8-0-0-0-0-0-0-0-0-10-10-10-10-10-10-10-10-9-9-9-9-X-X-X-X---|

|---------------------------------------------------------------------------|
|---------------------------------------------------------------------------|
|---------------------------------------------------------------------------|
|-8-8-8-8-8-8-8-8-0-0-0-0-0-0-0-0-10-10-10-10-10-10-10-10-5-5-5-5-5-5-5-5---|
|-8-8-8-8-8-8-8-8-0-0-0-0-0-0-0-0-10-10-10-10-10-10-10-10-5-5-5-5-5-5-5-5---|
|-8-8-8-8-8-8-8-8-0-0-0-0-0-0-0-0-10-10-10-10-10-10-10-10-5-5-5-5-5-5-5-5---|

|---------------------------------------------------------------------------|
|---------------------------------------------------------------------------|
|---------------------------------------------------------------------------|
|-8-8-8-8-8-8-8-8-0-0-0-0-0-0-0-0-10-10-10-10-10-10-10-10-9-9-9-9-9-9-9-9---|
|-8-8-8-8-8-8-8-8-0-0-0-0-0-0-0-0-10-10-10-10-10-10-10-10-9-9-9-9-9-9-9-9---|
|-8-8-8-8-8-8-8-8-0-0-0-0-0-0-0-0-10-10-10-10-10-10-10-10-9-9-9-9-9-9-9-9---|

|---------------------------------------------------------------------------|
|---------------------------------------------------------------------------|
|---------------------------------------------------------------------------|
|-8-8-8-8-8-8-8-8-0-0-0-0-0-0-0-0-10-10-10-10-10-10-10-10-5-5-5-5-5-5-5-5---|
|-8-8-8-8-8-8-8-8-0-0-0-0-0-0-0-0-10-10-10-10-10-10-10-10-5-5-5-5-5-5-5-5---|
|-8-8-8-8-8-8-8-8-0-0-0-0-0-0-0-0-10-10-10-10-10-10-10-10-5-5-5-5-5-5-5-5---|

|----------------------------------------------------------------------|
|----------------------------------------------------------------------|
|----------------------------------------------------------------------|
|---------------7-6-------------------------------7-6------------------|
|-----8-5---5-8-------8---10-8----------8-5---5-8-------8---10-8-------|
|-0-0--------------------------10-8-0-0--------------------------10-8--|
  . .                               . .

|----------------------------------------------------------------------|
|----------------------------------------------------------------------|
|----------------------------------------------------------------------|
|---------------7-6-------------------------------7-6------------------|
|-----8-5---5-8-------8---10-8----------8-5---5-8-------8---10-8-------|
|-0-0--------------------------10-8-0-0--------------------------10-8--|
  . .                               . .



************************************

| .   palm mute
| /   slide up
| \   slide down
| h   hammer-on
| p   pull-off
| ~   vibrato
| *   harmonic
| x   Mute note
| b   Bend
| pb  Pre-bend
| br  Bend release
| pbr Pre-bend release
| brb Bend release bend

************************************

            
            
Suggest correction
Creating personal tab
Creating personal tab
You can edit any tab online and save it as your Personal.

You can edit, replace or remove any tab part or add personal notes – all changes will be seen only by you.

Personal tabs can be accessed anytime from any device, even offline.
Learn more »
comments
print report bad tab
guest
You may want to rate the tab now too:
select rating
Wanna post a correction for this tab? Suggest correction