Oops, an error
Loading. Please wait.

Blow Bass Tab

version 2
version 2

Whole song

Interactive

3,850 views 1 this week
2 commentsread comments
1 2 3 4 5
1 last vote to show rating
add to favorites
launch autoscroll
font size
0
reset
guitar tuner
Autoscroll
slow
fast
+/-
esc
set tempo
stop
Help us to improve Ultimate-Guitar.com Take our survey!
×
Author
Tablature by: Troy (If there is any questions, just ask for my e-mail)

Please give me any feed back

Drop C
G-D-A-C

Blow-Atretu


Into-Drums & Guitar


Bass enters:
0:09

G---------|
D---------|
A---------|
C-7-5-3---|


Chorus:
0:13

G------------------------------------------------------------------------------------------------|
D------------------------------------------------------------------------------------------------|
A------------------------------------------------------------------------------------------------|
C--7-7-7-7-7-7-7-7-7-7-7-7-7-7--567-7-7-7-7-7-7-7-7-7-7-7-7-7-7-7-7--7653-3-3-3-3-3-3-3-3-3-3-3--|

G-------------------|
D-------------------|
A-------------------|
C--5-33~  --7-55~---|


Verse: x2
0:25

G--------------------------------------------------------------------------------------|
D--------------------------------------------------------------------------------------|
A--------------------------------------------------------------------------------------|
C--567-7-7-7-7-7-7-7-7--567-7-7-7-7-7-7-7-7-7-7--7653-3-3-3-3-3-3-3-3--1-11~ --5-55~---|


Pre-Chorus:
0:50

G--------------------------------|
D--------------------------------|
A--------------------------------|
C--3-33~~   ---5-33~  --7-55~ ---|


Chorus:
0:56


Verse:       
1:10

G--------------------------------------------------------------------------------|
D--------------------------------------------------------------------------------|
A--------------------------------------------------------------------------------|
C--567-7-7-7-7-7-7-7-7--567-7-7-7-7-7-7-7-7-7--7653-3-3-3-3-3-3-3-3/12 (x10)-\---|

G--------------------------------------------------------------------------------------|
D--------------------------------------------------------------------------------------|
A--------------------------------------------------------------------------------------|
C--567-7-7-7-7-7-7-7-7--567-7-7-7-7-7-7-7-7-7--7653-3-3-3-3-3-3-3-3--1-11~   --5-55~---|


Pre-Chorus:
1;34


Chorus: x2
1:41

G------------------------------------------------------------------------------------------------|
D------------------------------------------------------------------------------------------------|
A------------------------------------------------------------------------------------------------|
C--7-7-7-7-7-7-7-7-7-7-7-7-7-7--567-7-7-7-7-7-7-7-7-7-7-7-7-7-7-7-7--7653-3-3-3-3-3-3-3-3-3-3-3--|

1___________               2__________
           |
G---------------|        -----------------------------------|
D---------------|        -----------------------------------|
A---------------|        -----------------------------------|
C--5-33~  --7-55~ |      5-33~  --7-55~  --5-33~  --7-55 ---|


Bridge:
2:07

G----------------------------------------------------------------------------------------------|
D----------------------------------------------------------------------------------------------|
A----------------------------------------------------------------------------------------------|
C--543-3-3-3-3-3-3-3-3-3-3-3-3-3-3-3-3/5-5-5-5-5-5/7-7-7-7-7-7-7-7-7-7/10-10-10-10-10-10-10-10-\|

G-------------------------------------------------------------------------------------------|
D-------------------------------------------------------------------------------------------|
A-------------------------------------------------------------------------------------------|    x3
C---3-3-3-3-3-3-3-3-3-3-3-3-3-3-3-3/5-5-5-5-5-5/7-7-7-7-7-7-7-7-7-7/10-10-10-10-10-10-10-10-\|


Guitar Solo
2:46

G-------------------------------------------------------------------------------------------------|
D-------------------------------------------------------------------------------------------------|
A-------------------------------------------------------------------------------------------------|
C--567-7-7-7-7-7-7-7-7--567-7-7-7-7-7-7-7-7-7--7653-3-3-3-3-3-3-3-3--1-1-1-1-1-1-1-5-5-5-5-5-5-5-5|

G------------------------------------------------------------------------------------------|
D------------------------------------------------------------------------------------------|
A------------------------------------------------------------------------------------------|
C--567-7-7-7-7-7-7-7-7--567-7-7-7-7-7-7-7-7-7--7653-3-3-3-3-3-3-3-3--1-11~   --5-55~  543--|


Pre-Chorus:
3:09

G---------------------------------------------|
D---------------------------------------------|
A---------------------------------------------|
C--3-33~~   ---5-33~  --7-55~   -567-567-567--|

Chorus: Drums,Guitar & Vox
3:18


Bass Enters:
3:28

G---------|
D---------|
A---------|
C-7-5-3---|

Chorus:
3:31

G------------------------------------------------------------------------------------------------|
D------------------------------------------------------------------------------------------------|
A------------------------------------------------------------------------------------------------|
C--7-7-7-7-7-7-7-7-7-7-7-7-7-7--567-7-7-7-7-7-7-7-7-7-7-7-7-7-7-7-7--7653-3-3-3-3-3-3-3-3-3-3-3--|

G-----------------------------------------------|
D-----------------------------------------------|
A-----------------------------------------------|
C--5-33~  --7-55~  -5-33~  -7-55--567-567-567---|

Outro: Listen for timing at the end
3:50

G--------------------------------------------------------|
D--------------------------------------------------------|
A--------------------------------------------------------|
C- 777777777777777777777777777777777777777777777~~7-7-7/ |
Suggest correction
Give kudos to tab author, rate the tab!
1 2 3 4 5
comments
print report bad tab
2 comments total.
0 reply
donky kong 10 Jun 26, 2010 07:10 PM

that tuning isn't right at all

0 reply
asthenia44 86 Jul 19, 2011 11:56 AM

I dno about tuning as thats what allot of Atreyu songs are tuned like but the tab isn't very good.

guest
You may want to rate the tab now too:
select rating
Wanna post a correction for this tab? Suggest correction