Oops, an error
Loading. Please wait.

Cant Happen Here Tab

version 1
version 1

Whole song

Interactive

7,056 views 1 this week
6 commentsread comments
1 2 3 4 5
accurate
x 11
add to favorites
launch autoscroll
font size
0
reset
how to read this tab
guitar tuner
Autoscroll
slow
fast
+/-
esc
set tempo
stop
Help us to improve Ultimate-Guitar.com Take our survey!
×
Author
Difficulty
Tuning
intermediate
C G C F A D

DROP C (CGCFAD)

this is in the order of how the song goes (obviously) so you should
be able to play through it bit by bit. This just started by me tabbing the solo
but heres the whole song!

STUFF YOU'LL NEED:
8*-pinch harmonic
b-bend
h-hammer on 
p-pull off
PM-palm mute


INTRO (0:16):

guitar 1
 
D|------------------------------------------|
A|------------------------------------------|
F|------------------------------------------|
C|------------------------------------------|
G|--5h8-5h8-5h8-5h8-3-5-3-------------------|
C|------------------------5h8-5h8-5h8-5h8b--|

guitar 2

D|------------------------------------------|
A|------------------------------------------|
F|------------------------------------------|
C|--0---------------------------------------|
G|--0---------------------------------------|
C|--0---------------------------------------|

VERSE (0:21)

both guitars

D|-----------------------------|
A|-----------------------------|
F|-----------------------------| X2
C|--0-0000-000---000000--0000--|
G|--0-0000-000---000000--0000--|
C|--0-0000-000---000000--0000--|
  PM  **** ***   ******  ****

(0:31)

guitar 1

D|-----------------------------|
A|-----------------------------|
F|-----------------------------| X2
C|--0-0000-000---000000--0000--|
G|--0-0000-000---000000--0000--|
C|--0-0000-000---000000--0000--|
PM  * **** ***   ******  ****
guitar 2

D|------------------------------------------|
A|------------------------------------------|
F|------------------------------------------| X2
C|------------------------------------------|
G|--5h8-5h8-5h8-5h8-3-5-3-------------------|
C|------------------------5h8-5h8-5h8-5h8b--|

PRE-CHORUS (0:40)

guitar 1

D|---------------------------------------------------------|
A|---------------------------------------------------------|
F|--3--------------------------3--14141414\10109\775-10-7--| X2 but on the second time dont 
C|--3-3-0------------------0-3-3---------------------------|    play the high bits
G|--1-3-0------------------0-3-1--12121212\8-8-7\553--8-5--|
C|----3-0------------------0-3-----------------------------|

guitar 2

D|---------------------------------------------------------|
A|---------------------------------------------------------|
F|--3--------------------------3--10101010\77-55555777777--| X2 but on the second time dont
C|--3-3-0------------------0-3-3---------------------------|    play the high bits
G|--1-3-0------------------0-3-1---8-8-8-8\55-33333555555--|
C|----3-0------------------0-3-----------------------------|

CHORUS (0:58)

guitar 1

D|---------------------------------------|
A|---------------------------------------|
F|--7--10-9--5--7-9--9--10-12-12-10-9-7--|
C|---------------------------------------|
G|---------------------------------------|
C|---------------------------------------|

guitar 2

D|---------------------------------------|
A|---------------------------------------|
F|--77777777555555553333333333-----------|
G|--77777777555555553333333333555555555--|
C|--55555555333333331111111111555555555--|
G|----------------------------555555555--|

PRE-VERSE (1:07)

guitar 1
 
D|------------------------------------------|
A|------------------------------------------|
F|------------------------------------------|
C|------------------------------------------|
G|--5h8-5h8-5h8-5h8-3-5-3---------2h5-2h5b--|
C|------------------------5h8-5h8-----------|

guitar 2

D|------------------------------------------|
A|------------------------------------------|
F|------------------------------------------|
C|--------------------0-0-------------------|
G|--------------------0-0-------------------|
C|--------------------0-0-------------------|
PM                    * *

REST UNTIL (1:21)

both guitars

D|-------------------------|
A|-------------------------|
F|----------------------8*-|
C|--0-000-0000-000000------|
G|--0-000-0000-000000------|
C|--0-000-0000-000000------|
PM  * *** **** ******

(1:26)

guitar 1

D|----------------------------------------------|
A|----------------------------------------------|
F|----------------------------------------------|  X2
C|--000-00000-0000-000000-000-00000-0000-00000--|
G|--000-00000-0000-000000-000-00000-0000-00000--|
C|--000-00000-0000-000000-000-00000-0000-00000--|
PM  *** ***** **** ****** *** ***** **** *****

guitar 2

D|----------------------------------------------|
A|----------------------------------------------|
F|--7h10-7h10-7h10-5h6h7------------------------|  X2
C|-----------------------5h8-5h8-5h8-5h8-8p7p5--|
G|----------------------------------------------|
C|----------------------------------------------|

PRE-CHORUS

CHORUS X2

INTO THE SOLO (2:12)

guitar 1

D|-------|
A|-------|
F|-------|        for both of these parts if you have 
C|-------|        a whammy bar use it at the bend, but
G|-------|        if you dont like me then its sounds
C|--7*b--|        fine if you play just a normal bend.

guitar 2

D|-------|
A|-------|
F|-------|
C|-------|
G|-------|
C|--3*b--|


SOLO:
 
guitar 1 (2:14)

D|--------------------------------------------------------|
A|--8-10-8-------8-10-8--------8-10-8----11-10-8----8-10--|
F|---------10-----------10------------10---------10-------|
C|--------------------------------------------------------|
G|--------------------------------------------------------|
C|--------------------------------------------------------|

guitar 2 (2:14)

D|--------------------------------------------------------|
A|--5-6-5--------5-6-5---------5-6-5---8-6-5---5-6--------|
F|--------7------------7-------------7-------7------------|
C|--------------------------------------------------------|
G|--------------------------------------------------------|
C|--------------------------------------------------------|



guitar 1 (2:24)

D|--15-17-15--------17b-15-------------------------------------|
A|-----------18\------------17b\-------------------------------|
F|---------------------------------------9----------12---------|
C|---------------------------------12---------121415-----------|
G|-------------------------------------------------------------|
C|-------------------------------------------------------------|

D|-------------------------------------------------------------|
A|-------------------------------------------------------------|
F|----------------------------19b------------------------------|
C|--121415121415-----------------------------------------------|
G|-------------------------------------------------------------|
C|-------------------------------------------------------------|

guitar 2 (2:24)

D|--12-13-12--------13b-12-------------------------------------|
A|-----------15\------------15b\-------------------------------|
F|-----------------------------------------10-------------1214-|
C|------------------------------------14--------------1415-----|
G|-------------------------------------------------------------|
C|-------------------------------------------------------------|

D|-------------------------------------------------------------|
A|-------------------------------------------------------------|
F|----------------------------19b------------------------------|
C|--------------141517141517-----------------------------------|
G|-------------------------------------------------------------|
C|-------------------------------------------------------------|

guitar 3 (overdubbed) 

D|--------------------------------------------------------|
A|--------------------------------------------------------| 
F|777777777777733333333333333---------33333333333333333333|   X2
C|77777777777773333333333333355555555533333333333333333333|
G|55555555555551111111111111155555555511111111111111111111|
C|---------------------------555555555--------------------|

PRE-CHORUS

CAREFUL NOT TO GO INTO THE CHORUS HERE (LIKE ME)
WAIT FOR THE WAR SCENE BIT THEN PICKSLIDE INTO
THE CHORUS AT (2:55)

CHORUS X4

OUTRO:

D|----------------------------------------------|
A|----------------------------------------------|
F|----------------------------------------------|
C|--00-000000000-000000000-000000000-000000000--|
G|--00-000000000-000000000-000000000-000000000--|
C|--00-000000000-000000000-000000000-000000000--|
PM  ** ********* ********* ********* *********

THANKS
ENJOY THIS TAB! (IT TOOK LONG ENOUGH TO WRITE AND CHECK!)
Suggest correction
What's this?
You can suggest a correction to this tab. Community and Mods will review your correction and vote to approve or reject it.
comments
print report bad tab
6 comments total. Showing first comments.
+1 reply
titi riendeau 134 wrote on February 12 2008, 05:42 pm

yeah dude, 5*. I,ve been waithing for too long this tab, thanks man.

+1 reply
AtreyuAlive60 381 wrote on February 12 2008, 06:29 pm

yes!!! thanks for this tab dude 5* keep it up

-2 reply
sk8boi3 307 wrote on September 1 2008, 07:52 pm

This is probly the worst attempt at the intro that I've ever seen.. I could give the correct version but I don't really know how to tab.

guest
You may want to rate the tab now too:
select rating
Please do not post tabs as comments. Select "correction" instead!