Oops, an error
Loading. Please wait.

Clean Sheets Tab

version 1
version 1

Intro

Interactive

1,122 views 1 this week
no commentswrite comment
1 2 3 4 5
please rate
add to favorites
launch autoscroll
font size
0
reset
how to read this tab
guitar tuner
Tab Pro tools
  • play this tab
  • loop segment
  • change instrument
  • show fretboard
  • metronome
×
Best way to learn
"Clean Sheets"
Autoscroll
slow
fast
+/-
esc
set tempo
stop
Contributor
Tuning
C G C F A D
Intro:

D-----------------------------| Repeat 3 times!
A-----------------------------|
F--11-11---11---11-9r---------|
C--11-11---11---11-7r---------|
G--9--9----9----9--7r---------|
C-----------------------------|


D-----------------------------| Repeat 2 times
A-----------------------------|
F-14-13-11r--11--11-11--------|
C-14-13-11r--11--11-11--------|
G-12-11-9r---9---9--9---------|
C-----------------------------|


D------------------------------------------------|
A------------------------------------------------|
F------------------------------------------------|
C-9-9--9-9-9---10--10-10--10-10------------------|
G-9-9--9-9-9---10--10-10--10-10------------------|
C-9-9--9-9-9---10--10-10--10-10------------------|

Enjoy!!!

-atreyu_ja@hotmail.com-
JA


comments
We did not receive enough feedback on this tab! Please rate:
print report bad tab
1 2 3 4 5
I want to post or [tab]
guest
You may want to rate the tab now too:
select rating
Please do not post tabs as comments. Select "correction" instead!