Oops, an error
Loading. Please wait.

Congregation Of The Damned Tab

version 1
version 1

Whole song

Interactive

6,902 views 1 this week
4 commentsread comments
1 2 3 4 5
excellent!
x 9
add to favorites
launch autoscroll
font size
0
reset
how to read this tab
guitar tuner
Autoscroll
slow
fast
+/-
esc
set tempo
stop
Help us to improve Ultimate-Guitar.com Take our survey!
×
Author
============================================================================

                      Congregation of the Damned
 
                              Atreyu
                      Congregation of the Damned
============================================================================


Tabbed by: John Moores
           mooresjw@mail.uc.edu

Tuning: Drop C  (CGCFAD)


 *  = Palm Mute
 @  = Pinched harmonic
 x  = muted
(5) = natural harmonic on said fret
 b  = bend string
 r  = return string


Intro


Guitar I
0:05
|----------------------------------------|
|---/10---12//13--12---/15-13\12---------|
|----------------------------------------|
|----------------------------------------|  x2
|----------------------------------------|
|----------------------------------------|

Guitar II
0:05
|----------------------------------------|
|----------------------------------------|
|----------------------------------------|
|---7------------6-----3-----------------|  x2
|---7------------6-----3-----------------|
|---7------------6-----3-----------------|


Guitar III
0:10
|----------------------------------------|
|---/13---15//17--15---/18-17\15---------|
|----------------------------------------|
|----------------------------------------|
|----------------------------------------|
|----------------------------------------|


Verse 1

0:15

Guitar I
|--0------------------------------0-----------------------|
|--1------------------------------0-----------------------|
|--2------------------------------9-----------------------|
|--2------------------------------9-----------------------|
|--0------------------------------7-----------------------|
|---------------------------------------------------------|

|--0------------------------------0-----------------------|
|--1------------------------------1-----------------------|
|--2------------------------------2-----------------------|
|--2------------------------------2-----------------------|
|--0------------------------------0-----------------------|
|---------------------------------------------------------|

Guitar II
Staccato notes here
|--------------------------------------------------------------|
|-10-10---13p10---10-10-13p10--10-9-9---12p9---9-9-12p9--9-----|
|--------------------------------------------------------------|
|--------------------------------------------------------------|
|--------------------------------------------------------------|
|--------------------------------------------------------------|

|--------------------------------------------------------------|
|-10-10---13p10---10-10-13p10--10--10-10---13p10---10-10-13p10-|
|--------------------------------------------------------------|
|--------------------------------------------------------------|
|--------------------------------------------------------------|
|--------------------------------------------------------------|


Pre-chorus

0:25

Guitar I
|----------------------------------------|
|---/10---12//13--12---/15-13\12---------|
|----------------------------------------|
|----------------------------------------|  x2
|----------------------------------------|
|----------------------------------------|

Guitar II
|-----------------------------------------|
|-----------------------------------------|
|--2--------------------------------------|
|--2------2--------5------0---------------|
|--0------2--------5------0---------------|
|---------2--------5------0---------------|


Chorus

0:36

Guitar I
|-----------------------------------------------------|
|-----------------------------------------------------|
|--5-------2------5------2-------5-----2--------------|
|--5-------2------5------2-------5-----2-----0----3---|  x2
|--3-------0------3------0-------3-----0-----0----3---|
|--------------------------------------------0----3---|

Guitar II
|----------------------------------------|
|--/10-12-13-10-10~--/10-12-13-10-10~----|
|----------------------------------------|
|----------------------------------------|
|----------------------------------------|
|----------------------------------------|
                                             x2
|----------------------------------------|
|--/10-12-13-10-10~--10-/13-12-10-10~----|
|----------------------------------------|
|----------------------------------------|
|----------------------------------------|
|----------------------------------------|


Intro Riff

0:57

Guitar I
|----------------------------------------|
|---/10---12//13--12---/15-13\12---------|
|----------------------------------------|
|----------------------------------------|  x2
|----------------------------------------|
|----------------------------------------|

Guitar II
|----------------------------------------|
|----------------------------------------|
|----------------------------------------|
|---7------------6-----3-----------------|  x2
|---7------------6-----3-----------------|
|---7------------6-----3-----------------|


Guitar III
|----------------------------------------|
|---/10---12//13--12---/15-13\12---------|
|----------------------------------------|
|----------------------------------------|  x2
|----------------------------------------|
|----------------------------------------|


Verse 2

1:07

Guitar I
|--0------------------------------0-----------------------|
|--1------------------------------0-----------------------|
|--2------------------------------9-----------------------|
|--2------------------------------9-----------------------|
|--0------------------------------7-----------------------|
|---------------------------------------------------------|

|--0------------------------------0-----------------------|
|--1------------------------------1-----------------------|
|--2------------------------------2-----------------------|
|--2------------------------------2-----------------------|
|--0------------------------------0-----------------------|
|---------------------------------------------------------|

Guitar II
Staccato notes here
|--------------------------------------------------------------|
|-10-10---13p10---10-10-13p10--10-9-9---12p9---9-9-12p9--9-----|
|--------------------------------------------------------------|
|--------------------------------------------------------------|
|--------------------------------------------------------------|
|--------------------------------------------------------------|

|--------------------------------------------------------------|
|-10-10---13p10---10-10-13p10--10--10-10---13p10---10-10-13p10-|
|--------------------------------------------------------------|
|--------------------------------------------------------------|
|--------------------------------------------------------------|
|--------------------------------------------------------------|


Pre-chorus

1:18

Guitar I
|----------------------------------------|
|---/10---12//13--12---/15-13\12---------|
|----------------------------------------|
|----------------------------------------|  x2
|----------------------------------------|
|----------------------------------------|

Guitar II
|-----------------------------------------|
|-----------------------------------------|
|--2--------------------------------------|
|--2------2--------5------0---------------|
|--0------2--------5------0---------------|
|---------2--------5------0---------------|


Chorus

1:28

Guitar I
|-----------------------------------------------------|
|-----------------------------------------------------|
|--5-------2------5------2-------5-----2--------------|
|--5-------2------5------2-------5-----2-----0----3---|  x2
|--3-------0------3------0-------3-----0-----0----3---|
|--------------------------------------------0----3---|

Guitar II
|----------------------------------------|
|--/10-12-13-10-10~--/10-12-13-10-10~----|
|----------------------------------------|
|----------------------------------------|
|----------------------------------------|
|----------------------------------------|
                                              x2
|----------------------------------------|
|--/10-12-13-10-10~--10-/13-12-10-10~----|
|----------------------------------------|
|----------------------------------------|
|----------------------------------------|
|----------------------------------------|



Bridge


Guitar I
1:49
|-----------------------------------------------------|
|--/13--13h15p13\12~\---/12--12h13p12/10\\------------|
|-----------------------------------------------------|
|-----------------------------------------------------|
|-----------------------------------------------------|
|-----------------------------------------------------|
                                                         x2
|-----------------------------------------------------|
|--/12--12h13p12/10\\------/12--13--/15~\-------------|
|-----------------------------------------------------|
|-----------------------------------------------------|
|-----------------------------------------------------|
|-----------------------------------------------------|

Guitar II
1:59
|-----------------------------------------------------|
|--/17--17h18p17\15~\---/15--15h17p15/13\\------------|
|-----------------------------------------------------|
|-----------------------------------------------------|
|-----------------------------------------------------|
|-----------------------------------------------------|

|------------------------------------------//15///21--|
|--/15--15h17p15/13\\------/13--15--/17~\-------------|
|-----------------------------------------------------|
|-----------------------------------------------------|
|-----------------------------------------------------|
|-----------------------------------------------------|
                                              ^ This last slide
                                              is muted right at 
                                              the end

Break

2:10

Guitars I and II
|-----------------------------------------------------|
|-----------------------------------------------------|
|-----------------------------------------------------|
|-----------------------------------------------------|
|-----------------------------------------------------|
|-000-000-000-000-000-000-000-000-000-000-000-000-000-|
  *** *** *** *** *** *** *** *** *** *** *** *** *** 
   ^ You should get the idea, hopefully

|-----------------------------------------------------|
|-----------------------------------------------------|
|-----------------------------------------------------|
|-------------------------------------2--3--5---------|
|-------------------------------------2--3--5---------|
|-000-000-000-000-000-000-000-000-000-2--3--5---------|
  *** *** *** *** *** *** *** *** ***


Chorus

2:21

Guitar I
|-----------------------------------------------------|
|---10--------------------10--10--10~-----------------|
|-----------------------------------------------------|
|----------------------------------------0-----3------|
|----------------------------------------0-----3------|
|----------------------------------------0-----3------|

Guitar II
|-----------------------------------------------------|
|-----------------------------------------------------|
|-----------------------------------------------------|
|---7------------------------------------0-----3------|
|---7------------------------------------0-----3------|
|---7------------------------------------0-----3------|


Chorus

2:31

Guitar I
|-----------------------------------------------------|
|-----------------------------------------------------|
|--5-------2------5------2-------5-----2--------------|
|--5-------2------5------2-------5-----2-----0----3---|  x3
|--3-------0------3------0-------3-----0-----0----3---|
|--------------------------------------------0----3---|

Guitar II
|----------------------------------------|
|--/10-12-13-10-10~--/10-12-13-10-10~----|
|----------------------------------------|
|----------------------------------------|
|----------------------------------------|
|----------------------------------------|
                                               x3
|----------------------------------------|
|--/10-12-13-10-10~--10-/13-12-10-10~----|
|----------------------------------------|
|----------------------------------------|
|----------------------------------------|
|----------------------------------------|

3:02                    3:12
|--------------------|   |--------------------|
|--------------------|   |--------------------|
|--5-------2---------|   |--5-------2---------|
|--5-------2---------|   |--5-------2---------|
|--3-------0---------|   |--3-------0---------|
|--------------------|   |--------------------|


3:20 

Guitar I
|--------------------|
|--/13-----13~~------|
|--------------------|
|--------------------|
|--------------------|
|--------------------|

Guitar  II     
|--------------------|
|--------------------|
|--5-------2---------|  
|--5-------2---------|   
|--3-------0---------| 
|--------------------|


Please rate and leave comments!!  Especially for improvements!
Suggest correction
What's this?
You can suggest a correction to this tab. Community and Mods will review your correction and vote to approve or reject it.
comments
print report bad tab
4 comments total. Showing first comments.
0 reply
h0spid 613 wrote on October 31 2009, 04:10 am

Testing comments

0 reply
Kronus 900 wrote on August 18 2010, 05:21 am

Great Tab!

0 reply
Kronus 900 wrote on August 18 2010, 11:28 am

I noticed some mistakes...

I'll correct them with a guitarpro version of this song!
And I have to change to 4*, Sorry!

guest
You may want to rate the tab now too:
select rating
Please do not post tabs as comments. Select "correction" instead!