Oops, an error
Loading. Please wait.

Creature Bass Tab

version 2
version 2

Whole song

Interactive

402 views 1 this week
1 commentread comment
1 2 3 4 5
3 more votes to show rating
add to favorites
launch autoscroll
font size
0
reset
guitar tuner
Autoscroll
slow
fast
+/-
esc
set tempo
stop
Help us to improve Ultimate-Guitar.com Take our survey!
×
Author
Tuning
C G C G C E
#----------------------------------PLEASE NOTE---------------------------------#
#This file is the author's own work and represents their interpretation of the #
#song. You may only use this file for private study, scholarship, or research. #
#------------------------------------------------------------------------------##

                               CREATURE (Bassline)
                              As recorded by Atreyu
                 (From the 2006 Album A DEATH-GRIP TO YESTERDAY)

Words by Alex Varkatzas

Music by Atreyu
Arranged by Atreyu
Transcribed by Rhythman

Gtr I (C G C F) - 'Mark McKnight'

   Intro/Verse
    Q=168
   3/4
    Gtr I
    E E E E E E   E E E E E E   E E E E E E   E E E E E E
||--------------|-------------|-------------|-------------|
||o-------------|-------------|-------------|-------------|
||o-------------|-------------|-------------|-------------|
||--0-0-0-0-0-0-|-0-0-0-0-0-0-|-0-0-0-0-0-0-|-0-0-0-0-0-0-|


  E E E E E E   E E E E E E   E E E E E E   E E E E E E   4x
|-------------|-------------|-------------|---------------||
|-------------|-------------|-------------|--------------o||
|-------------|-------------|-------------|--------------o||
|-7-7-7-7-7-7-|-6-6-6-6-6-6-|-5-5-5-5-5-5-|-4-4-4-4-4-4---||


 Pre-Chorus
  E E E E E E   E E E E E E    E  E  E  E  E  E    E  E  E  E  E  E
|-------------|-------------|-------------------|--------------------||
|-------------|-------------|-------------------|--------------------||
|-------------|-------------|-------------------|--------------------||
|-3-3-3-3-3-3-|-3-3-3-3-3-3-|-12-12-12-12-12-12-|-12-12-12-12-12-12--||


 Chorus
  E E E E E E   E E E E E E   E E E E E E   E E E E E E
|-------------|-------------|-------------|--------------|
|-------------|-------------|-------------|--------------|
|-------------|-------------|-------------|--------------|
|-7-7-7-7-7-7-|-7-7-7-7-7-7-|-7-7-7-7-7-7-|-7-7-7-7-7-7--|


   E  E  E  E  E  E    E  E  E  E  E  E
|-------------------|-------------------|
|-------------------|-------------------|
|-------------------|-------------------|
|-10-10-10-10-10-10-|-10-10-10-10-10-10-|


   E  E  E  E  E  E    E  E  E  E  E  E
|-------------------|--------------------|
|-------------------|--------------------|
|-------------------|--------------------|
|-10-10-10-10-10-10-|-10-10-10-10-10-10--|


  E E E E E E   E E E E E E   E E E E E E   E E E E E E
|-------------|-------------|-------------|--------------|
|-------------|-------------|-------------|--------------|
|-------------|-------------|-------------|--------------|
|-5-5-5-5-5-5-|-5-5-5-5-5-5-|-5-5-5-5-5-5-|-5-5-5-5-5-5--|


  E E E E E E   E E E E E E   E E E E E E   E E E E E E
|-------------|-------------|-------------|--------------||
|-------------|-------------|-------------|--------------||
|-------------|-------------|-------------|--------------||
|-0-0-0-0-0-0-|-0-0-0-0-0-0-|-0-0-0-0-0-0-|-0-0-0-0-0-0--||


   Verse
    E E E E E E   E E E E E E   E E E E E E   E E E E E E
||--------------|-------------|-------------|-------------|
||o-------------|-------------|-------------|-------------|
||o-------------|-------------|-------------|-------------|
||--0-0-0-0-0-0-|-0-0-0-0-0-0-|-0-0-0-0-0-0-|-0-0-0-0-0-0-|


  E E E E E E   E E E E E E   E E E E E E   E E E E E E
|-------------|-------------|-------------|---------------||
|-------------|-------------|-------------|--------------o||
|-------------|-------------|-------------|--------------o||
|-7-7-7-7-7-7-|-7-7-7-7-7-7-|-7-7-7-7-7-7-|-7-7-7-7-7-7---||


   Bridge
    H    E E   H    E E   H    E E   E E E E E E
||-----------|----------|----------|-------------|
||o----------|----------|----------|---7---------|
||o-5----5-7-|-8----5-7-|-8----5-7-|-8---8-7-5-7-|
||-----------|----------|----------|-------------|


  E E E E E E   E E E E E E   E E E E E E   E E E E E E
|-------------|-------------|-------------|---------------||
|-------------|-------------|-------------|--------------o||
|-------------|-------------|-------------|--------------o||
|-7-7-7-7-7-7-|-6-6-6-6-6-6-|-5-5-5-5-5-5-|-0-0-0-0-0-0---||


 Pre-Verse
  E E E E E E   E E E E E E    E  E  E  E  E  E    E  E  E  E  E  E
|-------------|-------------|-------------------|--------------------||
|-------------|-------------|-------------------|--------------------||
|-------------|-------------|-------------------|--------------------||
|-3-3-3-3-3-3-|-3-3-3-3-3-3-|-12-12-12-12-12-12-|-12-12-12-12-12-12--||


 Verse
  H.        H.
|---------|-------|
|---------|-------|
|---------|-------|
|---------|-------|


    S S E S S E Q    S S E S S E E E   S S E S S E Q    S S E S S E E E
||-----------------|-----------------|----------------|------------------|
||o----------------|-----------------|----------------|------------------|
||o----------------|-----------------|----------------|------------------|
||--0-0-0-0-0-0----|-0-0-0-0-0-0-0-0-|-0-0-0-0-0-0----|-0-0-0-0-0-0-0-0--|


  E E E E E E   E E E E E E   E E E E E E   E E E E E E   4x
|-------------|-------------|-------------|---------------||
|-------------|-------------|-------------|--------------o||
|-------------|-------------|-------------|--------------o||
|-7-7-7-7-7-7-|-6-6-6-6-6-6-|-5-5-5-5-5-5-|-0-0-0-0-0-0---||


 Pre-Chorus
  E E E E E E   E E E E E E    E  E  E  E  E  E    E  E  E  E  E  E
|-------------|-------------|-------------------|--------------------||
|-------------|-------------|-------------------|--------------------||
|-------------|-------------|-------------------|--------------------||
|-3-3-3-3-3-3-|-3-3-3-3-3-3-|-12-12-12-12-12-12-|-12-12-12-12-12-12--||


   Out-Chorus
    E E E E E E   E E E E E E   E E E E E E   E E E E E E
||--------------|-------------|-------------|-------------|
||o-------------|-------------|-------------|-------------|
||o-------------|-------------|-------------|-------------|
||--7-7-7-7-7-7-|-7-7-7-7-7-7-|-7-7-7-7-7-7-|-7-7-7-7-7-7-|


   E  E  E  E  E  E    E  E  E  E  E  E
|-------------------|-------------------|
|-------------------|-------------------|
|-------------------|-------------------|
|-10-10-10-10-10-10-|-10-10-10-10-10-10-|


   E  E  E  E  E  E    E  E  E  E  E  E
|-------------------|--------------------|
|-------------------|--------------------|
|-------------------|--------------------|
|-10-10-10-10-10-10-|-10-10-10-10-10-10--|


  E E E E E E   E E E E E E   E E E E E E   E E E E E E
|-------------|-------------|-------------|--------------|
|-------------|-------------|-------------|--------------|
|-------------|-------------|-------------|--------------|
|-5-5-5-5-5-5-|-5-5-5-5-5-5-|-5-5-5-5-5-5-|-5-5-5-5-5-5--|


  E E E E E E   E E E E E E   E E E E E E   E E E E E E
|-------------|-------------|-------------|---------------||
|-------------|-------------|-------------|--------------o||
|-------------|-------------|-------------|--------------o||
|-0-0-0-0-0-0-|-0-0-0-0-0-0-|-0-0-0-0-0-0-|-0-0-0-0-0-0---||


                              >
  E E E E E E   E E E E E E   H.
|-------------|-------------|-------*|
|-------------|-------------|-------*|
|-------------|-------------|-------*|
|-0-0-0-0-0-0-|-0-0-0-0-0-0-|-0-----*|


Duration Legend
---------------
W - whole; H - half; Q - quarter; E - 8th; S - 16th; T - 32nd; X - 64th; a - acciaccatura
+ - note tied to previous; . - note dotted; .. - note double dotted
Uncapitalized letters represent notes that are staccato (1/2 duration)
Irregular groupings are notated above the duration line
Duration letters will always appear directly above the note/fret number it represents the
duration for.  Duration letters with no fret number below them represent rests.  Multi-
bar rests are notated in the form Wxn, where n is the number of bars to rest for.  Low
melody durations appear below the staff

Tablature Legend
----------------
 h   - hammer-on
 p   - pull-off
 b   - bend
 pb  - pre-bend
 r   - bend release (if no number after the r, then release immediately)
 /\  - slide into or out of (from/to "nowhere")
 s   - legato slide
 S   - shift slide
  - natural harmonic
[n]  - artificial harmonic
n(n) - tapped harmonic
 ~   - vibrato
 tr  - trill
 T   - tap
 TP  - trem. picking
 PM  - palm muting
\n/  - tremolo bar dip; n = amount to dip
 \n  - tremolo bar down
 n/  - tremolo bar up
/n\  - tremolo bar inverted dip
 =   - hold bend; also acts as connecting device for hammers/pulls
 <>  - volume swell (louder/softer)
 x   - on rhythm slash represents muted slash
 o   - on rhythm slash represents single note slash

Misc Legend
-----------
 |  - bar
||  - double bar
||o - repeat start
o|| - repeat end
*|  - double bar (ending)
 :  - bar (freetime)
 $  - Segno
 &  - Coda
Tempo markers -  = BPM(8/16=s8/s16), where s8 = swing 8ths, s16 = swing 16ths
Suggest correction
Give kudos to tab author, rate the tab!
1 2 3 4 5
comments
print report bad tab
1 comment total.
0 reply
frankibo 1,386 Oct 12, 2008 01:33 PM

is this stolen from my tab as well?

guest
You may want to rate the tab now too:
select rating
Wanna post a correction for this tab? Suggest correction