Oops, an error
Loading. Please wait.

Creature Tab

version 6
version 6
167 views 1 this week
no commentswrite comment
1 2 3 4 5
1 last vote to show rating
add to favorites
launch autoscroll
font size
0
reset
how to read this tab
guitar tuner
Autoscroll
slow
fast
+/-
esc
set tempo
stop
Help us to improve Ultimate-Guitar.com Take our survey!
×
Difficulty
Tuning
novice
C G C F A D
This is my first tab.  After going over a few others I've decided to write my 
own.  If you think its wrong or I should add more or have to much in it, email me 
at thisd00d@aim.com.  This is only for one guitar not both.  I'm doing Dans part.

Atreyu
Creature
Drop C (CGCFAD)

* - Palm mute
/ - slide
~ - let the note ring
h - hammer on

    |----------------------This whole intro x4-----------------------|
D---------------------------------------------------------------------------|
A---------------------------------------------------------------------------|
F---------------------------------------------------------------------------|
C----------------------------------------------------7----------------------|
G---------5---------5-7/8---------5-7/8---------5-7/8-8-7-5-7-3-------------|
C----------0-0-0-0-------0-0-0-0-------0-0-0-0------------------------------|
           * * * *       * * * *       * * * * 

D---------------------------------------------------------------------------|
A---------------------------------------------------------------------------|
F---------------------------------------------------------------------------|
C---------------------------------------------------------------------------|
G----------3-----------3---------3------------------------------------------|
C--000-000---0-0-0-0-0---000-000---0-0-0-0-0--------------------------------|
   *** ***   * * * * *   *** ***   * * * * *

|---Pre chorus---|
D------------------------------------|
A------------------------------------|
F---------------777777777777---------|
C-333333333333--777777777777---------|
G-333333333333--555555555555---------|
C-333333333333-----------------------|


|---Chorus---|
D---------------------------------------------------------------------------|
A---------------------------------------------------------------------------|
F--9-9-9-9/-12-12-12-12/-14-14-14-14/-12-12-12-12/-14-14-14-14/-12-12-12-12/|
C--9-9-9-9/-12-12-12-12/-14-14-14-14/-12-12-12-12/-14-14-14-14/-12-12-12-12/|
G--7-7-7-7/-10-10-10-10/-12-12-12-12/-10-10-10-10/-12-12-12-12/-10-10-10-10/|
C---------------------------------------------------------------------------|
Continue on..

D-----------------------------|
A-----------------------------|
F--9-9-9-9/-12-12-12-12-------|
C--9-9-9-9/-12-12-12-12-------|
G--7-7-7-7/-10-10-10-10-------|
C-----------------------------|


D---------------------------------------------------------------------------|
A---------------------------------------------------------------------------|
F--9-9-9-9/-12-12-12-12/-14-14-14-14/-12-12-12-12/-14/17/14-14/-12-12-12-12/|
C--9-9-9-9/-12-12-12-12/-14-14-14-14/-12-12-12-12/-14/17/14-14/-12-12-12-12/|
G--7-7-7-7/-10-10-10-10/-12-12-12-12/-10-10-10-10/-12/15/12-12/-10-10-10-10/|
C---------------------------------------------------------------------------|


D-----------------------------|
A-----------------------------|
F--9-9-9-9/-12-12-12-12-------|
C--9-9-9-9/-12-12-12-12-------|
G--7-7-7-7/-10-10-10-10-------|
C-----------------------------|

 |-------------------------This section x2----------------------------------|
D---------------------------------------------------------------------------|
A---------------------------------------------------------------------------|
F---------------------------------------------------------------------------|
C---------------------------------------------------------------------------|
G--5-----------5----------8----------8----------7----------7----------------|
C----0-0-0-0-0--0-0-0-0-0--0-0-0-0-0--0-0-0-0-0--0-0-0-0-0--0-0-0-0-0-------|
     * * * * *  * * * * *  * * * * *  * * * * *  * * * * *  * * * * * 

D-----------------------------------|
A-----------------------------------|
F-----------------------------------|
C-----------------------------------|
G--4-----------4----------0h3-5-----|
C----0-0-0-0-0--0-0-0-0-0-----------|

                            |---Do this 2 times---|
D---------------------------------------------------------------------------|
A---------------------------------------------------------------------------|
F---------------------------------------------------------------------------|
C-----------------------------7----------999999-888888-777777-222222--------|
G--5~~~5-7/8~~~~5-7/8~~~~5-7/8-8-7-5-7---999999-888888-777777-222222--------|
C----------------------------------------777777-666666-555555-000000--------|

After that 2 times do the pre chorus again.

D------------------------------|
A------------------------------|
F----------------777777777777--|
C--333333333333--777777777777--|
G--333333333333--555555555555--|
C--333333333333----------------|

Pre-breakdown

D---------------------------------|
A---------------------------------|
F---------------------------------|
C---------------------------------|
G--000-000--000-00000-0-----------|
C--000-000--000-00000-0--7\-------|
   *** ***  *** ***** *

Now the Breakdown.

           |------Do this x4-----|
D---------------------------------------------------------------------------|
A---------------------------------------------------------------------------|
F---------------------------------------------------------------------------|
C---------------------------------------------999999-888888-777777-222222---|
G--000-000--000-00000-0-000-000--000-00000-0--999999-888888-777777-222222---|
C--000-000--000-00000-0-000-000--000-00000-0--777777-666666-555555-000000---|
   *** ***  *** ***** * *** ***  *** ***** *

Pre chorus again


D----------------------------------|
A----------------------------------|
F---------------777777777777-------|
C--333333333333-777777777777-------|
G--333333333333-555555555555-------|
C--333333333333--------------------|


|---Chorus---|
D---------------------------------------------------------------------------|
A---------------------------------------------------------------------------|
F--9-9-9-9/-12-12-12-12/-14-14-14-14/-12-12-12-12/-14-14-14-14/-12-12-12-12/|
C--9-9-9-9/-12-12-12-12/-14-14-14-14/-12-12-12-12/-14-14-14-14/-12-12-12-12/|
G--7-7-7-7/-10-10-10-10/-12-12-12-12/-10-10-10-10/-12-12-12-12/-10-10-10-10/|
C---------------------------------------------------------------------------|
Continue on..

D-----------------------------|
A-----------------------------|
F--9-9-9-9/-12-12-12-12-------|
C--9-9-9-9/-12-12-12-12-------|
G--7-7-7-7/-10-10-10-10-------|
C-----------------------------|

D---------------------------------------------------------------------------|
A---------------------------------------------------------------------------|
F--9-9-9-9/-12-12-12-12/-14-14-14-14/-12-12-12-12/-14/17/14-14/-12-12-12-12/|
C--9-9-9-9/-12-12-12-12/-14-14-14-14/-12-12-12-12/-14/17/14-14/-12-12-12-12/|
G--7-7-7-7/-10-10-10-10/-12-12-12-12/-10-10-10-10/-12/15/12-12/-10-10-10-10/|
C---------------------------------------------------------------------------|


D-----------------------------|
A-----------------------------|
F--9-9-9-9/-12-12-12-12-------|
C--9-9-9-9/-12-12-12-12-------|
G--7-7-7-7/-10-10-10-10-------|
C-----------------------------|


Outro

D----------------------------------|
A----------------------------------|
F----------------------------------|
C-------------------------------0--|
G--5---------5-7/8----------5-7-0--|
C---0-0-0-0-0------0-0-0-0-0----0--|
    * * * * *      * * * * * 
Suggest correction
Give kudos to tab author, rate the tab!
1 2 3 4 5
comments
print report bad tab
guest
You may want to rate the tab now too:
select rating
Wanna post a correction for this tab? Suggest correction