Oops, an error
Loading. Please wait.

Deanne The Arsonist Tab

version 5
version 5
5,877 views 9 this week
5 commentsread comments
1 2 3 4 5
excellent!
x 6
add to favorites
launch autoscroll
font size
0
reset
how to read this tab
guitar tuner
Autoscroll
slow
fast
+/-
esc
set tempo
stop
Help us to improve Ultimate-Guitar.com Take our survey!
×
Tuning
C G C F A D
                               DEANNE THE ARSONIST
                              As recorded by Atreyu
            (From the 2002 Album SUICIDE NOTES AND BUTTERFLY KISSES)

Words and Music by Atreyu
Arranged by Atreyu
Transcribed by Gabriel Ortiz

Gtr I (C G C F A D) - 'Untitled'
Gtr II (C G C F A D) - 'Untitled'

 Intro
  Fast Rock Q=156
  N.C.
 4/4
  Gtr I
  Wx4            S S S S  S  S S S  S  S S S  S  S S S
|------------||----------------------------------------|
|------------||o---------------------------------------|
|------------||--0-0-0-0-12-12-0-0-12-12-0-0-12-12-0-0-|
|------------||----------------------------------------|
|------------||o---------------------------------------|
|------------||----------------------------------------|


  S S S S  S  S S S  S  S S S  S  S S S
|-----------------------------------------||
|----------------------------------------o||
|-0-0-0-0-12-12-0-0-12-12-0-0-12-12-0-0---||
|-----------------------------------------||
|----------------------------------------o||
|-----------------------------------------||


    G5
    Gtr I
    S S S S  S  S S S  S  S S S  S  S S S
||----------------------------------------|
||o---------------------------------------|
||--0-0-0-0-12-12-0-0-12-12-0-0-12-12-0-0-|
||----------------------------------------|
||o---------------------------------------|
||----------------------------------------|
|
|   Gtr II
|   W
||----------------------------------------|
||o---------------------------------------|
||----------------------------------------|
||--5-------------------------------------|
||o-5-------------------------------------|
||--5-------------------------------------|


  Eb5
  S S S S  S  S S S  S  S S S  S  S S S
|----------------------------------------|
|----------------------------------------|
|-0-0-0-0-12-12-0-0-12-12-0-0-12-12-0-0--|
|----------------------------------------|
|----------------------------------------|
|----------------------------------------|
|
| W
|----------------------------------------|
|----------------------------------------|
|----------------------------------------|
|-1--------------------------------------|
|-1--------------------------------------|
|-1--------------------------------------|


  Bb5
  S S S S  S  S S S  S  S S S  S  S S S
|---------------------------------------|
|---------------------------------------|
|-0-0-0-0-12-12-0-0-12-12-0-0-12-12-0-0-|
|---------------------------------------|
|---------------------------------------|
|---------------------------------------|
|
| W
|---------------------------------------|
|---------------------------------------|
|-3-------------------------------------|
|-3-------------------------------------|
|-1-------------------------------------|
|---------------------------------------|


  F5
  S S S S  S  S S S  S  S S S  S  S S S
|----------------------------------------||
|---------------------------------------o||
|-0-0-0-0-12-12-0-0-12-12-0-0-12-12-0-0--||
|----------------------------------------||
|---------------------------------------o||
|----------------------------------------||
|
| W
|----------------------------------------||
|---------------------------------------o||
|----------------------------------------||
|-3--------------------------------------||
|-3-------------------------------------o||
|-3--------------------------------------||


   Guitar Solo
    $
    G5             Eb5
                         |--3--|
    Q   Q  Q  Q    H     Q Q   Q
||-----/3--3-----|---------------|
||o-----------6--|-4-------3---4-|
||---------------|-------5-------|
||---------------|---------------|
||o--------------|---------------|
||---------------|---------------|
|
|   Q   Q  Q  Q    Q  Q  Q   Q
||---------------|---------------|
||o--------------|---------------|
||---------------|---------------|
||--5---5--5--5--|-1--1--1---1---|
||o-5---5--5--5--|-1--1--1---1---|
||--5---5--5--5--|-1--1--1---1---|


  Bb5                F5
           |--3--|
  E E +Q   Q Q   Q    Q  E E +E  Q   E
|------------------|-------------------|
|-3----------------|-------------------|
|---0-(0)--0-2---3-|-/5--3-2-(2)-----0-|
|------------------|-------------3-----|
|------------------|-------------------|
|------------------|-------------------|
|
| Q    Q   Q   Q      Q  Q    Q    Q
|------------------|-------------------|
|------------------|-------------------|
|-3----3---3---3---|-------------------|
|-3----3---3---3---|--3--3----3----3---|
|-1----1---1---1---|--3--3----3----3---|
|------------------|--3--3----3----3---|


  G5             Eb5
  Q   Q  Q  Q    H      Q  E E
|----/3--3-----|-----------3---|
|-----------6--|-4-----/6----6-|
|--------------|---------------|
|--------------|---------------|
|--------------|---------------|
|--------------|---------------|
|
| Q   Q  Q  Q    Q  Q   Q  Q
|--------------|---------------|
|--------------|---------------|
|--------------|---------------|
|-5---5--5--5--|-1--1---1--1---|
|-5---5--5--5--|-1--1---1--1---|
|-5---5--5--5--|-1--1---1--1---|


                         To Coda
  Bb5             F5
   ~~~
  +W               Q  E Q   Q   E
|---------------|-/6--5-3-------3--||
|-(6)-----------|-----------6-----o||
|---------------|------------------||
|---------------|------------------||
|---------------|-----------------o||
|---------------|------------------||
|
|  Q   Q  Q  Q     Q  Q   Q   Q
|---------------|------------------||
|---------------|-----------------o||
|--3---3--3--3--|------------------||
|--3---3--3--3--|--3--3---3---3----||
|--1---1--1--1--|--3--3---3---3---o||
|---------------|--3--3---3---3----||


   1st Verse
    G5                                  Eb5
    Gtrs I, II
    E E E E E E E E   E E E E E E E E   E E E E E E E E   E E E E E E E E
||------------------|-----------------|-----------------|------------------|
||o-----------------|-----------------|-----------------|------------------|
||------------------|-----------------|-----------------|------------------|
||--5-5---5-5-5---5-|-5-5---5-5-5---5-|-1-1---1-1-1---1-|-1-1---1-1-1---1--|
||o-5-5---5-5-5---5-|-5-5---5-5-5---5-|-1-1---1-1-1---1-|-1-1---1-1-1---1--|
||--5-5---5-5-5---5-|-5-5---5-5-5---5-|-1-1---1-1-1---1-|-1-1---1-1-1---1--|


                                                          D.S. al Coda
  F/A                                 D5                Eb5
  Gtr I
  E E E E E E E E   E E E E E E E E   E E E E E E E E   E E E E E E E E
|-----------------|-----------------|-----------------|------------------||
|-----------------|-----------------|-----------------|-----------------o||
|-----------------|-----------------|-----------------|------------------||
|-7-7---7-7-7---7-|-7-7---7-7-7---7-|-0-0-0-0-0-0-0-0-|-1-1-1-1-1-1-1-1--||
|-8-8---8-8-8---8-|-8-8---8-8-8---8-|-0-0-0-0-0-0-0-0-|-1-1-1-1-1-1-1-1-o||
|-7-7---7-7-7---7-|-7-7---7-7-7---7-|-0-0-0-0-0-0-0-0-|-1-1-1-1-1-1-1-1--||
|
| Gtr II
| E E E E E E E E   E E E E E E E E   E E E E E E E E   E E E E E E E E
|-----------------|-----------------|-----------------|------------------||
|-----------------|-----------------|-----------------|-----------------o||
|-----------------|-----------------|-7-7-7-7-7-7-7-7-|-8-8-8-8-8-8-8-8--||
|-7-7---7-7-7---7-|-7-7---7-7-7---7-|-x-x-x-x-x-x-x-x-|-x-x-x-x-x-x-x-x--||
|-8-8---8-8-8---8-|-8-8---8-8-8---8-|-5-5-5-5-5-5-5-5-|-6-6-6-6-6-6-6-6-o||
|-7-7---7-7-7---7-|-7-7---7-7-7---7-|-----------------|------------------||


   2nd Verse
    &
    G5                                  Eb5
    Gtrs I, II
    E E E E E E E E   E E E E E E E E   E E E E E E E E   E E E E E E E E
||------------------|-----------------|-----------------|------------------|
||o-----------------|-----------------|-----------------|------------------|
||------------------|-----------------|-----------------|------------------|
||--5-5---5-5-5---5-|-5-5---5-5-5---5-|-1-1---1-1-1---1-|-1-1---1-1-1---1--|
||o-5-5---5-5-5---5-|-5-5---5-5-5---5-|-1-1---1-1-1---1-|-1-1---1-1-1---1--|
||--5-5---5-5-5---5-|-5-5---5-5-5---5-|-1-1---1-1-1---1-|-1-1---1-1-1---1--|


                                     1.
  F/A                                 D5                Eb5
  Gtr I
  E E E E E E E E   E E E E E E E E   E E E E E E E E   E E E E E E E E
|-----------------|-----------------|-----------------|------------------||
|-----------------|-----------------|-----------------|-----------------o||
|-----------------|-----------------|-----------------|------------------||
|-7-7---7-7-7---7-|-7-7---7-7-7---7-|-0-0-0-0-0-0-0-0-|-1-1-1-1-1-1-1-1--||
|-8-8---8-8-8---8-|-8-8---8-8-8---8-|-0-0-0-0-0-0-0-0-|-1-1-1-1-1-1-1-1-o||
|-7-7---7-7-7---7-|-7-7---7-7-7---7-|-0-0-0-0-0-0-0-0-|-1-1-1-1-1-1-1-1--||
|
| Gtr II
| E E E E E E E E   E E E E E E E E   E E E E E E E E   E E E E E E E E
|-----------------|-----------------|-----------------|------------------||
|-----------------|-----------------|-----------------|-----------------o||
|-----------------|-----------------|-7-7-7-7-7-7-7-7-|-8-8-8-8-8-8-8-8--||
|-7-7---7-7-7---7-|-7-7---7-7-7---7-|-x-x-x-x-x-x-x-x-|-x-x-x-x-x-x-x-x--||
|-8-8---8-8-8---8-|-8-8---8-8-8---8-|-5-5-5-5-5-5-5-5-|-6-6-6-6-6-6-6-6-o||
|-7-7---7-7-7---7-|-7-7---7-7-7---7-|-----------------|------------------||


  2.
  D5                Eb5
  Gtrs I, II
    PM--|   PM--|     PM--|   PM--|
  E E E E E E E E   E E E E E E E E
|-----------------|-----------------||
|-----------------|-----------------||
|-----------------|-----------------||
|-0-------0-------|-1-------1-------||
|-0-0-0-0-0-0-0-0-|-1-1-1-1-1-1-1-1-||
|-0-0-0-0-0-0-0-0-|-1-1-1-1-1-1-1-1-||


 Interlude
  $$
  D5
  Gtr I
  PM|
  E E Q  Q   Q    H.      +Q
|---------------|---------------|
|---------------|---------------|
|---------------|---------------|
|--------7--/8--|---------------|
|-0-0-5---------|-5-------(5)\--|
|-0-0-----------|---------------|
|
| Gtr II
| PM|
| E E Q  Q   Q    H.      +Q
|---------------|---------------|
|---------------|---------------|
|--------5--/7--|---------------|
|-----3---------|-3-------(3)\--|
|-0-0-----------|---------------|
|-0-0-----------|---------------|


    D5
    Q.     Q.   Q      Q.      Q.   Q    Q.     Q.   Q    Q.      Q.   Q
||-----------------|-------------------|----------------|------------------|
||o----------------|-------------------|----------------|------------------|
||-----------------|-------------------|----------------|------------------|
||---------7-------|-/10-------8----7--|--------7-------|-8-------7--------|
||o-5-----------5--|-------------------|-5-----------5--|--------------8---|
||-----------------|-------------------|----------------|------------------|
|
|   PM-|               PM-|              PM-|             PM-|
|   E  E H      Q      E  E H.           E  E H      Q    E  E H.
||-----------------|-------------------|----------------|------------------|
||o----------------|-------------------|----------------|------------------|
||-----------------|-------------------|----------------|------------------|
||-----------------|-------------------|----------------|------------------|
||o-0--0--------0--|---0--0------------|-0--0--------0--|-0--0-------------|
||--0--0--------0--|---0--0------------|-0--0--------0--|-0--0-------------|


                      To Dbl. Coda
  D5
  Q.     Q.   Q      Q.      Q.   Q
|----------------|-------------------|
|----------------|-------------------|
|----------------|-------------------|
|--------7-------|-/10-------8----7--|
|-5-----------5--|-------------------|
|----------------|-------------------|
|
| PM-|               PM-|
| E  E H      Q      E  E H.
|----------------|-------------------|
|----------------|-------------------|
|----------------|-------------------|
|----------------|-------------------|
|-0--0--------0--|---0--0------------|
|-0--0--------0--|---0--0------------|


  Q.     Q.   Q    Q.     Q.        Q
|----------------|------------------------||
|----------------|-----------------------o||
|----------------|------------------------||
|--------7-------|-8------7---------------||
|-5-----------5--|------------------8----o||
|----------------|------------------------||
|
| PM-|             PM-|   PM-----|
| E  E H      Q    E  E E S  S E E  Q
|----------------|------------------------||
|----------------|-----------------------o||
|----------------|------------------------||
|----------------|------------------------||
|-0--0--------0--|-0--0---0--0-0-0-------o||
|-0--0--------0--|-0--0---0--0-0-0-[1]----||


   Bridge
    Ab5                                 Eb5
    Gtrs I, II
    E E E E E E E E   E E E E E E E E   E E E E E E E E   E E E E E E E E
||------------------|-----------------|-----------------|------------------|
||o-----------------|-----------------|-----------------|------------------|
||------------------|-----------------|-----------------|------------------|
||--6-6-6-6-6-6-6-6-|-6-6-6-6-6-6-6-6-|-1-1-1-1-1-1-1-1-|-1-1-1-1-1-1-1-1--|
||o-6-6-6-6-6-6-6-6-|-6-6-6-6-6-6-6-6-|-1-1-1-1-1-1-1-1-|-1-1-1-1-1-1-1-1--|
||--6-6-6-6-6-6-6-6-|-6-6-6-6-6-6-6-6-|-1-1-1-1-1-1-1-1-|-1-1-1-1-1-1-1-1--|


  Gb5                                 D5
  E E E E E E E E   E E E E E E E E   W          +W
|-----------------|-----------------|----------|---------||
|-----------------|-----------------|----------|--------o||
|-----------------|-----------------|----------|---------||
|-4-4-4-4-4-4-4-4-|-4-4-4-4-4-4-4-4-|-0--------|-(0)-----||
|-4-4-4-4-4-4-4-4-|-4-4-4-4-4-4-4-4-|-0--------|-(0)----o||
|-4-4-4-4-4-4-4-4-|-4-4-4-4-4-4-4-4-|-0--------|-(0)-----||


  +W           +W
|------------|--------||
|------------|--------||
|------------|--------||
|-(0)--------|-(0)----||
|-(0)--------|-(0)----||
|-(0)--------|-(0)----||


 Guitar Solo
  D5                                 N.C.
  T       T        T       T         T       T       T       T
  S S S S S  S S S S S S S S S S S   S S S S S S S S S S S S S S S S
|----------------------------------|---------------------------------|
|----------------------------------|---------------------------------|
|-7-3h5p3-7--3h5p3-7-3h5p3-7-3h5p3-|-8-3h5p3-8-3h5p3-8-3h5p3-8-3h5p3-|
|----------------------------------|---------------------------------|
|----------------------------------|---------------------------------|
|----------------------------------|---------------------------------|
|
| Gtr II
| q       H.                         W
|----------------------------------|---------------------------------|
|----------------------------------|---------------------------------|
|----------------------------------|---------------------------------|
|-0--------------------------------|---------------------------------|
|-0--------------------------------|---------------------------------|
|-0--------------------------------|---------------------------------|


   T        T        T        T          T        T        T        T
   S S S S  S S S S  S S S S  S S S S    S S S S  S S S S  S S S S  S S S S
|-------------------------------------|-------------------------------------|
|-------------------------------------|-------------------------------------|
|-10-3h5p3-10-3h5p3-10-3h5p3-10-3h5p3-|-10-3h5p3-10-3h5p3-10-3h5p3-10-3h5p3-|
|-------------------------------------|-------------------------------------|
|-------------------------------------|-------------------------------------|
|-------------------------------------|-------------------------------------|
|
|  W                                     W
|-------------------------------------|-------------------------------------|
|-------------------------------------|-------------------------------------|
|-------------------------------------|-------------------------------------|
|-------------------------------------|-------------------------------------|
|-------------------------------------|-------------------------------------|
|-------------------------------------|-------------------------------------|


    Bb5                               C5
    T       T       T       T          T       T       T       T
    S S S S S S S S S S S S S S S S    S S S S S S S S S S S S S S S S
||----------------------------------|-----------------------------------|
||o---------------------------------|-----------------------------------|
||--7-3h5p3-7-3h5p3-7-3h5p3-7-3h5p3-|--8-3h5p3-8-3h5p3-8-3h5p3-8-3h5p3--|
||----------------------------------|-----------------------------------|
||o---------------------------------|-----------------------------------|
||----------------------------------|-----------------------------------|
|
|   W                                  W
||----------------------------------|-----------------------------------|
||o---------------------------------|-----------------------------------|
||----------------------------------|-----------------------------------|
||--8-------------------------------|-10--------------------------------|
||o-8-------------------------------|-10--------------------------------|
||--8-------------------------------|-10--------------------------------|


  Eb5
   T        T        T        T
   S S S S  S S S S  S S S S  S S S S
|-------------------------------------|
|-------------------------------------|
|-10-3h5p3-10-3h5p3-10-3h5p3-10-3h5p3-|
|-------------------------------------|
|-------------------------------------|
|-------------------------------------|
|
|  W
|-------------------------------------|
|-------------------------------------|
|-------------------------------------|
|-13----------------------------------|
|-13----------------------------------|
|-13----------------------------------|


    T         T        T        T
    S  S S S  S S S S  S S S S  S S S S
|----------------------------------------||
|---------------------------------------o||
|--10--3h5p3-10-3h5p3-10-3h5p3-10-3h5p3--||
|----------------------------------------||
|---------------------------------------o||
|----------------------------------------||
|
|  +W
|----------------------------------------||
|---------------------------------------o||
|----------------------------------------||
|-(13)-----------------------------------||
|-(13)----------------------------------o||
|-(13)-----------------------------------||


  N.C.
   T        T        T        T          T        T        T        T
   S S S S  S S S S  S S S S  S S S S    S S S S  S S S S  S S S S  S S S S
|-------------------------------------|-------------------------------------|
|-------------------------------------|-------------------------------------|
|--7-3h5p3--7-3h5p3--7-3h5p3--7-3h5p3-|--8-3h5p3--8-3h5p3--8-3h5p3--8-3h5p3-|
|-------------------------------------|-------------------------------------|
|-------------------------------------|-------------------------------------|
|-------------------------------------|-------------------------------------|
|
|  T        T        T        T          T        T        T        T
|  S S S S  S S S S  S S S S  S S S S    S S S S  S S S S  S S S S  S S S S
|-------------------------------------|-------------------------------------|
|-------------------------------------|-------------------------------------|
|-10-7h8p7-10-7h8p7-10-7h8p7-10-7h8p7-|-11-7h8p7-11-7h8p7-11-7h8p7-11-7h8p7-|
|-------------------------------------|-------------------------------------|
|-------------------------------------|-------------------------------------|
|-------------------------------------|-------------------------------------|


                                                       D.S.S. al Dbl. Coda
   T        T        T        T          T        T        T        T
   S S S S  S S S S  S S S S  S S S S    S S S S  S S S S  S S S S  S S S S
|-------------------------------------|-------------------------------------||
|-------------------------------------|-------------------------------------||
|-10-3h5p3-10-3h5p3-10-3h5p3-10-3h5p3-|-10-3h5p3-10-3h5p3-10-3h5p3-10-3h5p3-||
|-------------------------------------|-------------------------------------||
|-------------------------------------|-------------------------------------||
|-------------------------------------|-------------------------------------||
|
|  T        T        T        T          T        T        T        T
|  S S S S  S S S S  S S S S  S S S S    S S S S  S S S S  S S S S  S S S S
|-------------------------------------|-------------------------------------||
|-------------------------------------|-------------------------------------||
|-15-7h8p7-15-7h8p7-15-7h8p7-15-7h8p7-|-15-7h8p7-15-7h8p7-15-7h8p7-15-7h8p7-||
|-------------------------------------|-------------------------------------||
|-------------------------------------|-------------------------------------||
|-------------------------------------|-------------------------------------||


 Outro
  &&
  D5
  Gtrs I, II
  PM|      PM--|
  E E Q.   E E E   q  Q  H
|----------------|------------*|
|----------------|------------*|
|----------------|------------*|
|----------------|------------*|
|-0-0------0-0-0-|-0----------*|
|-0-0------0-0-0-|-0----------*|


Duration Legend
---------------
W - whole; H - half; Q - quarter; E - 8th; S - 16th; T - 32nd; X - 64th; a - acciaccatura
+ - note tied to previous; . - note dotted; .. - note double dotted
Uncapitalized letters represent notes that are staccato (1/2 duration)
Irregular groupings are notated above the duration line
Duration letters will always appear directly above the note/fret number it represents the
duration for.  Duration letters with no fret number below them represent rests.  Multi-
bar rests are notated in the form Wxn, where n is the number of bars to rest for.  Low
melody durations appear below the staff

Tablature Legend
----------------
 h   - hammer-on
 p   - pull-off
 b   - bend
 pb  - pre-bend
 r   - bend release (if no number after the r, then release immediately)
 /\  - slide into or out of (from/to "nowhere")
 s   - legato slide
 S   - shift slide
  - natural harmonic
[n]  - artificial harmonic
n(n) - tapped harmonic
 ~   - vibrato
 tr  - trill
 T   - tap
 TP  - trem. picking
 PM  - palm muting
\n/  - tremolo bar dip; n = amount to dip
 \n  - tremolo bar down
 n/  - tremolo bar up
/n\  - tremolo bar inverted dip
 =   - hold bend; also acts as connecting device for hammers/pulls
 <>  - volume swell (louder/softer)
 x   - on rhythm slash represents muted slash
 o   - on rhythm slash represents single note slash

Misc Legend
-----------
 |  - bar
||  - double bar
||o - repeat start
o|| - repeat end
*|  - double bar (ending)
 :  - bar (freetime)
 $  - Segno
 &  - Coda
Tempo markers -  = BPM(8/16=s8/s16), where s8 = swing 8ths, s16 = swing 16ths
Suggest correction
What's this?
You can suggest a correction to this tab. Community and Mods will review your correction and vote to approve or reject it.
comments
print report bad tab
5 comments total. Showing first comments.
0 reply
pHaKe 1,838 wrote on April 22 2006, 10:18 pm

...wtf, this was my tab...

0 reply
AtreyuAlive60 381 wrote on December 6 2007, 06:21 pm

perfect i think

0 reply
THEguitarGOD789 82 wrote on July 20 2008, 09:27 pm

dude...this is perfect. u are awesome

guest
You may want to rate the tab now too:
select rating
Please do not post tabs as comments. Select "correction" instead!