Oops, an error
Loading. Please wait.

Deanne The Arsonist Tab

version 6
version 6
63 views 1 this week
no commentswrite comment
1 2 3 4 5
please rate
add to favorites
launch autoscroll
font size
0
reset
how to read this tab
guitar tuner
Autoscroll
slow
fast
+/-
esc
set tempo
stop
Help us to improve Ultimate-Guitar.com Take our survey!
×
Author
Difficulty
Tuning
intermediate
D A D G B E
This is a Drop D version for those who cant tune to Drop C by ear.
The only problem I have is changing the chords in the verses because the only 
thing deeper than 1 is 0 and that doesn't match so for now they're
going to be the same as the Drop C version unless anyone can help me out.
Just comment on here if you can. 

Intro:For the intro i turned the 0's to o's so you can see the tens.
1|--------------------------------------------------------|
2|--------------------------------------------------------|
3|--oooo-10ooo-10ooo-10ooo--------------------------------|
4|--------------------------------------------------------|
5|--------------------------------------------------------|
6|--------------------------------------------------------|
    ~~~~ ~~~~~ ~~~~~ ~~~~~

1|--------------------------------------------------------|
2|--------------------------------------------------------|
3|--------------------------------------------------------|
4|--5------1------8------3--------------------------------|
5|--5------1------8------3--------------------------------|
6|--5------1------8------3--------------------------------|


Chorus - 2x - 
1|-----------------------------------------------------------|
2|-----------------------------------------------------------|
3|-----10-10-8-6-3-5-6-5-------------------------------------|
4|--------------------------------3---3-5-6-8-6-5-1-3--------|
5|-----------------------------------------------------------|
6|-----------------------------------------------------------|

1|----------------------------------------------------|
2|------------------------------9-8-------------------|
3|--10-10-8-6-8-10-8-----------------10-8-10----------|
4|----------------------------------------------------|
5|----------------------------------------------------|
6|----------------------------------------------------|

Verse 1 - 2x
1|--------------------------------------------------------|
2|--------------------------------------------------------|
3|--------------------------------------------------------|
4|--5-5--0-5-5--0-5-5--0-5-5--0-1-1--0-1-1--0-1-1--0-1-1--|
5|--5-5--0-5-5--0-5-5--0-5-5--0-1-1--0-1-1--0-1-1--0-1-1--|
6|--5-5--0-5-5--0-5-5--0-5-5--0-1-1--0-1-1--0-1-1--0-1-1--|

1---------------------------------------------------------|
2---------------------------------------------------------|
3--------------------------------77777777-88888888--------|
4--0-3-3--0-3-3--0-3-3--0-3-3--0-xxxxxxxx-xxxxxxxx--------|
5--0-3-3--0-3-3--0-3-3--0-3-3--0-55555555-66666666--------|
6--0-3-3--0-3-3--0-3-3--0-3-3--0-00000000-00000000--------|


Chorus - 1x
1|------------------------------------------------------|
2|------------------------------------------------------|
3|-----10-10-8-6-3-5-6-5--------------------------------|
4|---------------------------3---3-5-6-8-6-5-1-3--------|
5|------------------------------------------------------|
6|------------------------------------------------------|

1|----------------------------------------------------|
2|--------------------------------9-8-----------------|
3|--10-10-8-6-8-10-8-----------------10-8-10----------|
4|----------------------------------------------------|
5|----------------------------------------------------|
6|----------------------------------------------------|


Verse - 2x, play alternate ending on second time
1|--------------------------------------------------------|
2|--------------------------------------------------------|
3|--------------------------------------------------------|
4|--5-5--0-5-5--0-5-5--0-5-5--0-1-1--0-1-1--0-1-1--0-1-1--|
5|--5-5--0-5-5--0-5-5--0-5-5--0-1-1--0-1-1--0-1-1--0-1-1--|
6|--5-5--0-5-5--0-5-5--0-5-5--0-1-1--0-1-1--0-1-1--0-1-1--|

1---------------------------------------------------------|
2---------------------------------------------------------|
3--------------------------------77777777-88888888--------|
4--0-3-3--0-3-3--0-3-3--0-3-3--0-xxxxxxxx-xxxxxxxx--------|
5--0-3-3--0-3-3--0-3-3--0-3-3--0-55555555-66666666--------|
6--0-3-3--0-3-3--0-3-3--0-3-3--0-00000000-00000000--------|
                                |skip this on second time|
Alternate Verse Ending - 1x
1|--------------------------------------------------------|
2|--------------------------------------------------------|
3|--------------------------------------------------------|
4|--3-3-3-3-3-3-3-3-4-4-4-4-4-4-4----------------|
5|--3-3-3-3-3-3-3-3-4-4-4-4-4-4-4----------------|
6|--3-3-3-3-3-3-3-3-4-4-4-4-4-4-4----------------|
      * * *   * * *   * * *            

Verse 2 - 4x harmonic on the last 6 the 2nd and 4th time
1|-----------------|----------------|------------------------|
2|-----------------|----------------|------------------------|
3|-----------------|----------------|------------------------|
4|-00----8--10-----|----5---8--6-5--|---5-----6-5------------|
5|-00--6--------6--|--3---3---------|--3--3-------6----------|
6|-00--------------|----------------|------------------------|


Bridge - 2x
1|--------------------------------------------------------|
2|--------------------------------------------------------|
3|--------------------------------------------------------|
4|--6666666666666666-1111111111111111-4444444444444444--0-|
5|--6666666666666666-1111111111111111-4444444444444444--0-|
6|--6666666666666666-1111111111111111-4444444444444444--0-|

Solo - 
      4x            4x            8x
1|-------------|-------------|-----------------|
2|-------------|-------------|-----------------|
3|7p-3h-5p-3---|--8p-3h-5p-3-|----10p-3h-5p-3--|
4|-------------|-------------|-----------------|
5|-------------|-------------|-----------------|
6|-------------|-------------|-----------------|
   

Verse 2 - 4x harmonic on the last 6 the 2nd and 4th time
1|-----------------|----------------|------------------------|
2|-----------------|----------------|------------------------|
3|-----------------|----------------|------------------------|
4|-00---8--10------|----5---8--6-5--|---5-----6-5------------|
5|-00-6--------6---|--3---3---------|--3--3-------6----------|
6|-00--------------|----------------|------------------------|

Also during Verse 2 the second guitar breakdown part is:

1|-----------------|-----------------|
2|-----------------|-----------------|
3|-----------------|-----------------|
4|-----------------|-----------------|
5|-0-0-----0-0-0-0-|-0-0-----0---0-0-|
6|-0-0-----0-0-0-0-|-0-0-----0---0-0-|
   * *     * * * *   * *     *   * *

1------------------|-------------------------------|
2|-----------------|-------------------------------|
3|-----------------|-------------------------------|
4|-----------------|-------------------------------|
5|-0-0-----0-0-0-0-|-0-0-----0---0-0--0-0-0-0------|
6|-0-0-----0-0-0-0-|-0-0-----0---0-0--0-0-0-0-(1)--|
   * *     * * * *   * *     *   * *  * * * *
Suggest correction
Give kudos to tab author, rate the tab!
1 2 3 4 5
comments
print report bad tab
guest
You may want to rate the tab now too:
select rating
Please do not post tabs as comments. Select "correction" instead!