Oops, an error
Loading. Please wait.

Deanne The Arsonist Tab

version 6
version 6
112 views 3 this week
no commentswrite comment
1 2 3 4 5
3 more votes to show rating
add to favorites
launch autoscroll
font size
0
reset
how to read this tab
guitar tuner
×
Best way to learn
"Deanne The Arsonist"
Autoscroll
slow
fast
+/-
esc
set tempo
stop
Author
Difficulty
Tuning
  follow
intermediate
C G C F A D
The tab that i learned this song from on this website has some parts wrong in it 
so i'm gonna to tab it with the right pieces.

Tabbed by Brandon Bushnell
Drop C Tuning (CGCFAD)
   

  Intro Guitar 1
D|--------------------------|
A|--------------------------|
F|--0000-12000-12000-12000--|
C|--------------------------|
G|--------------------------|
C|--------------------------|

  Intro Guitar 2
D|------------------|
A|------------------|
F|------------------|
C|--5---1---8---3---|
G|--5---1---8---3---|
C|--5---1---8---3---|

   Chorus 2x
D|-------------------------------------------|
A|-------------------------------------------|
F|--12-12-10-8-5-7-8-7-----------------------|
C|----------------------5--5-7-8-10-8-7-3-5--|
G|-------------------------------------------|
C|-------------------------------------------|


D|------------------------------------------|
A|------------------------11v-10------------|
F|--12-12-10-8-10-12-10v----------12-10-12--|
C|------------------------------------------|
G|------------------------------------------|
C|------------------------------------------|

  Verse 1 2x
D|----------------------------------------------------------------------|
A|----------------------------------------------------------------------|
F|----------------------------------------------------------------------|
C|--5-5--0-5-5--0-5-5--0-1-1--0-1-1--0-1-1--0-1-1--0-3-3--0-3-3--0-3-3--|
G|--5-5--0-5-5--0-5-5--0-1-1--0-1-1--0-1-1--0-1-1--0-3-3--0-3-3--0-3-3--|
C|--5-5--0-5-5--0-5-5--0-1-1--0-1-1--0-1-1--0-1-1--0-3-3--0-3-3--0-3-3--|


D|-----------------------------|
A|-----------------------------|
F|---------77777777--88888888--|
C|--0-3-3--xxxxxxxx--xxxxxxxx--|
G|--0-3-3--55555555--66666666--|
C|--0-3-3----------------------|

  Chorus 1x
D|-------------------------------------------|
A|-------------------------------------------|
F|--12-12-10-8-5-7-8-7-----------------------|
C|----------------------5--5-7-8-10-8-7-3-5--|
G|-------------------------------------------|
C|-------------------------------------------|


D|------------------------------------------|
A|------------------------11v-10------------|
F|--12-12-10-8-10-12-10v----------12-10-12--|
C|------------------------------------------|
G|------------------------------------------|
C|------------------------------------------|


 Verse 1 2x
D|----------------------------------------------------------------------|
A|----------------------------------------------------------------------|
F|----------------------------------------------------------------------|
C|--5-5--0-5-5--0-5-5--0-1-1--0-1-1--0-1-1--0-1-1--0-3-3--0-3-3--0-3-3--|
G|--5-5--0-5-5--0-5-5--0-1-1--0-1-1--0-1-1--0-1-1--0-3-3--0-3-3--0-3-3--|
C|--5-5--0-5-5--0-5-5--0-1-1--0-1-1--0-1-1--0-1-1--0-3-3--0-3-3--0-3-3--|

                                 2x Ending
D|-----------------------------|------------------------|
A|-----------------------------|------------------------|
F|---------77777777--88888888--|------------------------|
C|--0-3-3--xxxxxxxx--xxxxxxxx--|--0-00-0-00--1-11-1111--|
G|--0-3-3--55555555--66666666--|--0-00-0-00--1-11-1111--|
C|--0-3-3----------------------|--0-00-0-00--1-11-1111--|
                                    ..   ..    ..

                 Verse 2 4x Showing patten of first 2x 
D|--------------|-----------------------------------------------|
A|--------------|-----------------------------------------------|
F|-----5--7-----|-----------------------------------------------|
C|--7--7--8--7--|-----7---10-8-7-----7---8-7--------7---10-8-7--|
G|--8--------8--|--5----5---------5----5-----8---5----5---------|
C|--------------|-----------------------------------------------|


D|-----------------|
A|-----------------|
F|-----------------|
C|-----7---8-7-----|
G|--5----5-----8*--|
C|-----------------|

  Bridge 2x
D|-------------------------------------------------|
A|-------------------------------------------------|
F|-------------------------------------------------|
C|--666666666666--1111111111111--444444444444--0~--|
G|--666666666666--1111111111111--444444444444--0~--|
C|--666666666666--1111111111111--444444444444--0~--|

  
 Finger Tap 
D|-----------------------------------------------------------|
A|-----------------------------------------------------------|
F|--t7p3h5---t8p3h5---t10p3h5-3x--last time end on--t15p3h5--|
C|-----------------------------------------------------------|
G|-----------------------------------------------------------|
C|-----------------------------------------------------------|


Verse 2 4x Showing patten of first 2x 
D|--------------|-----------------------------------------------|
A|--------------|-----------------------------------------------|
F|-----5--7-----|-----------------------------------------------|
C|--7--7--8--7--|-----7---10-8-7-----7---8-7--------7---10-8-7--|
G|--8--------8--|--5----5---------5----5-----8---5----5---------|
C|--------------|-----------------------------------------------|


D|-----------------|
A|-----------------|
F|-----------------|
C|-----7---8-7-----|
G|--5----5-----8*--|
C|-----------------|

  End
D|------------|
A|------------|
F|------------|
C|--00--0000--|
G|--00--0000--|
C|--00--0000--|
    ..  ....


Well thats it have fun.
Suggest correction
Give kudos to tab author, rate the tab!
1 2 3 4 5
comments
print report bad tab
guest
You may want to rate the tab now too:
select rating
Wanna post a correction for this tab? Suggest correction