Oops, an error
Loading. Please wait.

Demonology And Heartache Bass Tab

version 1
version 1

Whole song

Interactive

1,666 views 1 this week
no commentswrite comment
1 2 3 4 5
please rate
add to favorites
launch autoscroll
font size
0
reset
guitar tuner
Autoscroll
slow
fast
+/-
esc
set tempo
stop
Help us to improve Ultimate-Guitar.com Take our survey!
×
Author
dandyhandy17 2,009
#----------------------------------PLEASE NOTE---------------------------------#
#This file is the author's own work and represents their interpretation of the #
#song. You may only use this file for private study, scholarship, or research. #
#------------------------------------------------------------------------------##

                       DEMONOLOGY AND HEARTACHE (Bassline)
                              As recorded by Atreyu
                         (From the 2004 Album THE CURSE)

Words and Music by Atreyu
Arranged by Atreyu
Transcribed by Rhythman

Gtr I (D G C F) - 'Mark McKnight'

 Intro
  Moderate Q=124
 4/4
  Gtr I
  W          W          W           W
|----------|----------|----------|-------|
|----------|----------|----------|-------|
|----------|----------|----------|-------|
|----------|----------|-8--------|-12----|


  W          W          E S E E E S E S S E
|----------|----------|---------------------|
|----------|----------|---------------------|
|----------|----------|---------------------|
|-8--------|-0--------|-8-8-8-8-8-8-8-8-8-8-|


   S  S  S  E  E  E  S  E  S  S  E   E H..
|----------------------------------|----------||
|----------------------------------|----------||
|----------------------------------|----------||
|-10-10-10-10-10-10-10-10-10-10-10-|-8--------||


 Verse 1
  S S S E E E S E S S E    E  S  E  E  E  S  E  S  S  S S
|-----------------------|---------------------------------|
|-----------------------|---------------------------------|
|-----------------------|---------------------------------|
|-8-8-8-8-8-8-8-8-8-8-8-|-10-10-10-10-10-10-10-10-10-10-0-|


  +W           +H.      S S S S
|------------|-------------------|
|------------|-------------------|
|------------|----------7-7-7----|
|-(0)--------|-(0)------------8--|


  +S  S S S S S S S S S S S S S S  S
|------------------------------------|
|------------------------------------|
|------------------------------------|
|-(8)-8-8-8-8-8-8-8-8-8-8-8-8-8-8-10-|


   +S   S  S  S  S  S  S  S  S  S  S  S  S  S  S S   +W           +H.      S S S S
|--------------------------------------------------|------------|-------------------|
|--------------------------------------------------|------------|-------------------|
|--------------------------------------------------|------------|----------7-7-7----|
|-(10)-10-10-10-10-10-10-10-10-10-10-10-10-10-10-0-|-(0)--------|-(0)------------8--|


  +S  S S S S S S S S S S S S S S  S    +S   S  S  S  S  S  S  S  S  S  S  S  S  S  S S
|------------------------------------|--------------------------------------------------|
|------------------------------------|--------------------------------------------------|
|------------------------------------|--------------------------------------------------|
|-(8)-8-8-8-8-8-8-8-8-8-8-8-8-8-8-10-|-(10)-10-10-10-10-10-10-10-10-10-10-10-10-10-10-8-|


  +E  E E. E. E E.  S    +E   S  S  S  S  S  S  S  S  S  S  S  S  S S
|---------------------|-------------------------------------------------|
|---------------------|-------------------------------------------------|
|---------------------|-------------------------------------------------|
|-(8)-8-8--7--7-7--12-|-(12)-12-12-12-12-12-12-12-12-12-12-12-12-12-8---|


  +E  E E.  E.  E  E.  S    +H.       +E. S
|------------------------|------------------|
|------------------------|------------------|
|------------------------|------------------|
|-(8)-8-8--10--10-10--12-|-(12)------(12)-8-|


  +E  E E.  E.  E  E. S   +E  E E E E E E. S
|-----------------------|--------------------|
|-----------------------|--------------------|
|-----------------------|--------------------|
|-(8)-8-8--10--10-10--7-|-(7)-7-7-7-8-8-8--8-|


  +E  E Q  E E E.  S    +E   E  Q   E  E  S  S  S S
|--------------------|------------------------------|
|--------------------|------------------------------|
|--------------------|------------------------------|
|-(8)-8-8--8-8-8--10-|-(10)-10-10--10-10-10-10-10-0-|


  +W           +H.      S S S S
|------------|------------------||
|------------|------------------||
|------------|----------7-7-7---||
|-(0)--------|-(0)------------8-||


  +S  S S S S S S S S S S S S S S  S
|------------------------------------|
|------------------------------------|
|------------------------------------|
|-(8)-8-8-8-8-8-8-8-8-8-8-8-8-8-8-10-|


   +S   S  S  S  S  S  S  S  S  S  S  S  S  S  S S   +W           +H.      S S S S
|--------------------------------------------------|------------|-------------------|
|--------------------------------------------------|------------|-------------------|
|--------------------------------------------------|------------|----------7-7-7----|
|-(10)-10-10-10-10-10-10-10-10-10-10-10-10-10-10-0-|-(0)--------|-(0)------------8--|


  +E  E E E E E E.  S    +E   E  E  E  E  E  E. S
|---------------------|---------------------------|
|---------------------|---------------------------|
|---------------------|---------------------------|
|-(8)-8-8-8-8-8-8--10-|-(10)-10-10-10-10-10-10--8-|


  +E  E E E E E Q     E.  E.  E  E.  E.  E
|------------------|-17--16--14-16--14--12-||
|------------------|-----------------------||
|------------------|-----------------------||
|-(8)-8-8-8-8-8-8--|-----------------------||


   Chorus
    E S E S E. S E S S E   E S E S E. S E S S E
||-----------------------|----------------------|
||o----------------------|----------------------|
||o----------------------|----------------------|
||--0-0-0-0-0--0-0-0-0-0-|-0-0-0-0-0--0-0-0-0-0-|


  E S E S E. S E S S E   E S E S E. S E S S E
|----------------------|----------------------|
|----------------------|----------------------|
|----------------------|----------------------|
|-8-8-8-8-8--8-8-8-8-8-|-8-8-8-8-8--8-8-8-8-8-|


  E S E S E. S E S S E   E S E S E. S E S S E
|----------------------|----------------------|
|----------------------|----------------------|
|----------------------|----------------------|
|-7-7-7-7-7--7-7-7-7-7-|-7-7-7-7-7--7-7-7-7-7-|


                         1.                       2.
  E S E S E. S E S S E   E S E S E. S E S S E     E S E S Q  Q.
|----------------------|-----------------------||------------------||
|----------------------|----------------------o||------------------||
|----------------------|----------------------o||------------------||
|-3-3-3-3-3--3-3-3-3-3-|-3-3-3-3-3--3-3-3-3-3--||-3-3-3-3-3--3-----||


 Break
  W          +H     H      W          +W
|----------|-------------|----------|--------|
|----------|-------------|----------|--------|
|----------|-------------|----------|--------|
|-8--------|-(8)----8----|-0--------|-(0)----|


  W          +H     H      W          +H     Q  Q
|----------|-------------|----------|--------------||
|----------|-------------|----------|--------------||
|----------|-------------|----------|--------------||
|-8--------|-(8)----8----|-0--------|-(0)----0--0--||


   Guitar Solo
    W          +H     H      W          +W
||-----------|-------------|----------|---------||
||o----------|-------------|----------|--------o||
||o----------|-------------|----------|--------o||
||--8--------|-(8)----8----|-0--------|-(0)-----||


   Verse 2
    W          W          W
||-----------|----------|----------|
||o----------|----------|----------|
||o----------|----------|----------|
||--5--------|-3--------|-0--------|


  W         4x W          S. S. S. S. E Q  Q
|-----------||----------|---------------------||
|----------o||----------|------------------0--||
|----------o||----------|---------------------||
|-1---------||----------|-0-----0-----0-------||


 Chorus
  E S E S E. S E S S E   E S E S E. S E S S E
|----------------------|----------------------|
|----------------------|----------------------|
|----------------------|----------------------|
|-0-0-0-0-0--0-0-0-0-0-|-0-0-0-0-0--0-0-0-0-0-|


  E S E S E. S E S S E   E S E S E. S E S S E
|----------------------|-----------------------|
|----------------------|-----------------------|
|----------------------|-----------------------|
|-8-8-8-8-8--8-8-8-8-8-|-8-8-8-8-8--8-8-8-8-8--|


  E S E S E. S E S S E   E S E S E. S E S S E   E S E S E. S E S S E
|----------------------|----------------------|----------------------||
|----------------------|----------------------|----------------------||
|----------------------|----------------------|----------------------||
|-7-7-7-7-7--7-7-7-7-7-|-7-7-7-7-7--7-7-7-7-7-|-3-3-3-3-3--3-3-3-3-3-||


   Outro Solo
    E S E S E. S E S S E   E S E S E. S E S S E
||-----------------------|----------------------|
||o----------------------|----------------------|
||o----------------------|----------------------|
||--3-3-3-3-3--3-3-3-3-3-|-0-0-0-0-0--0-0-0-0-0-|


  E S E S E. S E S S E   E S E S E. S E S S E
|----------------------|----------------------|
|----------------------|----------------------|
|----------------------|----------------------|
|-0-0-0-0-0--0-0-0-0-0-|-8-8-8-8-8--8-8-8-8-8-|


  E S E S E. S E S S E   E S E S E. S E S S E
|----------------------|----------------------|
|----------------------|----------------------|
|----------------------|----------------------|
|-8-8-8-8-8--8-8-8-8-8-|-7-7-7-7-7--7-7-7-7-7-|


  E S E S E. S E S S E   E S E S E. S E S S E   3x
|----------------------|------------------------||
|----------------------|-----------------------o||
|----------------------|-----------------------o||
|-7-7-7-7-7--7-7-7-7-7-|-3-3-3-3-3--3-3-3-3-3---||


  E S E S E E E E E   W          +W
|-------------------|----------|--------|
|-------------------|----------|--------|
|-------------------|----------|--------|
|-3-3-3-3-3-3-3-3-0-|-0--------|-(0)----|


Duration Legend
---------------
W - whole; H - half; Q - quarter; E - 8th; S - 16th; T - 32nd; X - 64th; a - acciaccatura
+ - note tied to previous; . - note dotted; .. - note double dotted
Uncapitalized letters represent notes that are staccato (1/2 duration)
Irregular groupings are notated above the duration line
Duration letters will always appear directly above the note/fret number it represents the
duration for.  Duration letters with no fret number below them represent rests.  Multi-
bar rests are notated in the form Wxn, where n is the number of bars to rest for.  Low
melody durations appear below the staff

Tablature Legend
----------------
 h   - hammer-on
 p   - pull-off
 b   - bend
 pb  - pre-bend
 r   - bend release (if no number after the r, then release immediately)
 /\  - slide into or out of (from/to "nowhere")
 s   - legato slide
 S   - shift slide
  - natural harmonic
[n]  - artificial harmonic
n(n) - tapped harmonic
 ~   - vibrato
 tr  - trill
 T   - tap
 TP  - trem. picking
 PM  - palm muting
\n/  - tremolo bar dip; n = amount to dip
 \n  - tremolo bar down
 n/  - tremolo bar up
/n\  - tremolo bar inverted dip
 =   - hold bend; also acts as connecting device for hammers/pulls
 <>  - volume swell (louder/softer)
 x   - on rhythm slash represents muted slash
 o   - on rhythm slash represents single note slash

Misc Legend
-----------
 |  - bar
||  - double bar
||o - repeat start
o|| - repeat end
*|  - double bar (ending)
 :  - bar (freetime)
 $  - Segno
 &  - Coda
Tempo markers -  = BPM(8/16=s8/s16), where s8 = swing 8ths, s16 = swing 16ths
Suggest correction new What's this?
You can suggest a correction to this tab. Community and Mods will review your correction and vote to approve or reject it.
comments
We did not receive enough feedback on this tab! Please rate:
print report bad tab
1 2 3 4 5
guest
You may want to rate the tab now too:
select rating
Please do not post tabs as comments. Select "correction" instead!