Oops, an error
Loading. Please wait.

Demonology And Heartache Tab

version 2
version 2

Intro

Whole song

Interactive

2,624 views 1 this week
no commentswrite comment
1 2 3 4 5
x 4
add to favorites
launch autoscroll
font size
0
reset
how to read this tab
guitar tuner
Autoscroll
slow
fast
+/-
esc
set tempo
stop
Help us to improve Ultimate-Guitar.com Take our survey!
×
Author
Difficulty
intermediate
-------------------------------------------------------------------------------
                             Demonology and Heartache - Atreyu
-------------------------------------------------------------------------------
Tabbed by: schecterguy
Email: chrissk8s2@aol.com

Tuning: C G C F A D
  Guitar 1
D|---------------------------------------------------------------------------|
A|-12p0-0-7p0-8p0-10p0-8p0-0-7h8p7-------------------------------------------|
F|---------------------------------------------------------------------------|  x8
C|---------------------------------------------------------------------------|
G|---------------------------------------------------------------------------|
C|---------------------------------------------------------------------------|
  Guitar 2
e|---------------------------------------------------------------------------|
B|---------------------------------------------------------------------------|
G|-5~-9~-5~-9~-5~-7~---------------------------------------------------------|
D|-5~-9~-5~-9~-5~-7~---------------------------------------------------------|
A|-3~-7~-3~-7~-3~-5~---------------------------------------------------------|
E|---------------------------------------------------------------------------|
  Guitar 1
e|---------------------------------------------------------------------------|
B|-10-8-7-8-7-3-5~-5h6-8-7---------------------------------------------------|
G|---------------------------------------------------------------------------|
D|---------------------------------------------------------------------------|
A|---------------------------------------------------------------------------|
E|---------------------------------------------------------------------------|
       
e|---------------------------------------------------------------------------|
B|---------------------------------------------------------------------------|
G|---------------------------------------------------------------------------|
D|-000-2~--------------------------------------------------------------------|
A|-000-2~--------------------------------------------------------------------|
E|-000-2~--------------------------------------------------------------------|
Suggest correction
comments
print report bad tab
guest
You may want to rate the tab now too:
select rating
Wanna post a correction for this tab? Suggest correction