Oops, an error
Loading. Please wait.

Demonology And Heartache Tab

version 1
version 1

Whole song

Interactive

9,889 views 6 this week
6 commentsread comments
1 2 3 4 5
accurate
x 5
add to favorites
launch autoscroll
font size
0
reset
how to read this tab
guitar tuner
Autoscroll
slow
fast
+/-
esc
set tempo
stop
Help us to improve Ultimate-Guitar.com Take our survey!
×
Author
Intro (guitar 1)
|7p0---------------------------|--------------------------------|
|----0-7p0-8p0-10p0-8p0-0-7h8p7-|-13-12-10-12-10-7-8~--10/1210~-|
|------------------------------|--------------------------------|
|------------------------------|--------------------------------|
|------------------------------|--------------------------------|
|------------------------------|--------------------------------|
   ^x8^                                             ^End with This^
Intro (guitar 2)
|---------------------------|
|---------------------------|
|---------------------------|
|10~-14~-10~-7~-10~-12~-14~-|
|10~-14~-10~-7~-10~-12~-14~-|
|10~-14~-10~-7~-10~-12~-14~-|

Verse (Both Guitars) x2
|--------------------------------------------------|
|--------------------------------------------------|
|9~--9-9-9-9-9-9-9/1211-11-11-11-11-11-11-11-11----|
|x~--x-x-x-x-x-x-x/x-x--x--x--x--x--x--x--x--x-----|
|7~--7-7-7-7-7-7-7/109--9--9--9--9--9--9--9--9-----|
|--------------------------------------------------|

Verse Cont *Those Are 11's Not 1's*
|------------------------------------------------------------------------------------------------|
|------------------------------------------------------------------------------------------------|
|12-12-11-11/-12-------------------------12-1211-119~-12-1211-117-79-9-9-9-9-9-9-9-10-111111111--|
|x--x--x--x-/-x--x-x-x-x-x-x-x-x-x-x-x-x-x--x-x--x-x~-x--x-x--x-x-xx-x-x-x-x-x-x-x-x--x-x-x-x-x--|
|10-10-9--9-/-10-x-x-x-x-x-x-x-x-x-x-x-x-10-109--9-7~-10-109--9-5-57-7-7-7-7-7-7-712/9-9-9-9-9---|
|-----------------x-x-x-x-x-x-x-x-x-x-x-x--------------------------------------------------------|

Verse x2  (Dont Do The Verse Cont Part)

End Verse With This
|------------------------------------------------------------------------|
|-------------------------------------------------------12-10-8-10-8-7---|
|9-9-9-9-9-9-910/11-11-11-11-11-11-11-11-9-9-9-9-9-9-9-------------------|
|x-x-x-x-x-x-xx-/x--x--x--x--x--x--x--x--x-x-x-x-x-x-x-------------------|
|7-7-7-7-7-7-712/9--9--9--9--9--9--9--9--7-7-7-7-7-7-7-------------------|
|------------------------------------------------------------------------|

Chorus (Guitar 1) *these Are Main Chords, Listen For Strumming* x2
|---------------|
|---------------|
|9--12--11--7---|
|x--x---x---x---|
|7--10--9---5---|
|---------------|

Chorus (Guitar 2) *Again only main chords* x2
|----------------------------|
|----------------------------|
|9-17-16-14-12-7-12-11-9-7-9-|
|x-x--x--x--x--x-x--x--x-x-x-|
|7-15-14-12-10-5-10-9--7-5-7-|
|----------------------------|

Break pt 1 (guitar 1)
|---------------|
|---------------|
|9-11-12--11/12-|
|x-x--x---x-/x--|
|7-9--10--9-/10-|
|---------------|

Break pt 2 I have only odne the pulls off part
|18-17-15-20-18-17-15p0-0-17p0-0-18p0-0-17p0-15h17p15-11h12p11---|
|----------------------------------------------------------------|
|----------------------------------------------------------------|
|----------------------------------------------------------------|
|----------------------------------------------------------------|
|----------------------------------------------------------------|

Break pt 2
|--------------------------------------------------------------|
|--------------------------------------------------------------|
|--------------------------------------------------------------|
|9-9h10p9--9-9h10p9--9-9h10p9--9-9h10p9--9-9h10p-9-12-10-9-7---|
|--------------------------------------------------------------|
|--------------------------------------------------------------|
   ^x2^

Then This...
|--------------------------------------------------|
|--------------------------------------------------|
|--------------------------------------------------|
|--9-5-10-9-7---9-5-10-9-7---9-5-10-9-7--12-10-9-7-|
|7------------7------------7-----------------------|
|--------------------------------------------------|

Fill (the pull offs are harmonized)
|7p0----------------------------------------|
|----0-7p0-8p0-10p0-8p0-07h8p7--------------|
|-----------------------------9-9-9--99-----|
|-----------------------------9-9-9--99-----|
|-----------------------------7-7-7--77-----|
|-------------------------------------------|

Then Play Chorus And END
Suggest correction
comments
print report bad tab
6 comments total. Showing first comments.
0 reply
guitar_freak91 1,098 wrote on May 19 2006, 05:09 pm

its kinda hard to follow. tab it out note by note, and if you dont wanna do that, dont get lazy. tell how many times something is repeated.

0 reply
tails123 10 wrote on December 26 2006, 03:58 am

i LOVE ATREYU!!!!!!!!
they rock:)
nice tab

0 reply
rictazero 520 wrote on February 27 2007, 05:06 pm

the chorus was horrible

guest
You may want to rate the tab now too:
select rating
Please do not post tabs as comments. Select "correction" instead!