Oops, an error
Loading. Please wait.

Dilated Bass Tab

version 1
version 1

Whole song

Interactive

227 views 1 this week
no commentswrite comment
1 2 3 4 5
please rate
add to favorites
launch autoscroll
font size
0
reset
guitar tuner
Tab Pro tools
  • play this tab
  • loop segment
  • change instrument
  • show fretboard
  • metronome
Autoscroll
slow
fast
+/-
esc
set tempo
stop
Contributor
Tuning-C,G,C,F

Intro : x2
F----------------------------------------------------------------------|
C----------------------------------------------------------------------|
G------------8/7--------------8/7--------------8/7---------------------|
C0--0-0-0-0-------7--7-7-7-7-------8--8-8-8-8-------5--5-5-5-5----5-3--|

verse: x2

F------------------------------------------------------| Listen to the song
C------------------------------------------------------| to figure out how
G------------------------------------------------------| many times to play
C-0-0-0-0-0----7-7-7-7-7--8-8-8-8-8----5-5-5-5-5--5-3--| each note

Pre Chorus :
F-----------------------------------------------------------------------|
C---------------------------8-7-7h8p7-----------------------------------|
G-5-3-5-8-7-7h8p7-3----5-3-5----------3----5-3-5-8-7-7h8p7-3----5-3-5---|
C-------------------0------------------0---------------------0----------|

F---------|
C---------|
G---------|
C-33333-0-|

F-----------------------------|
C-----------------------------|
G-----------------------------|
C-5-5-5-5-5---8-8-8-8-8-8-8-8-|

Chorus: x2
F-------------------------------------------------------------------|
C-------------------------------------------------------------------|
G-------------------------------------------------------------------|
C5-5---5~--8-8---8~--0-0-0-0-0-0-0-0-0-0-0-0-0--2-2-2-2-2--3-3-3-3-3|

end on
F------
C--0~--

Bridge: x2
F---------------------------------------------------------------------|
C---------------5---3-------------------------------------------------|
G-----3---5-----------------------------------------------------------|
C-0-0---0---0-0---0---0-0~----------5-5---5-----5----3-3---3-----3----|

2nd Time Play:
F---------------------------|   ^ then play whats above ^
C---------------3---2-------|
G-----3---5-----------------|
C-0-0---0---0-0---0---0-0~--|

Fill:
F--------------------------|
C--------------------------|
G--------------------------|
C-5-5-5-5-5-5--8-8-8-8-8-8-|

Outro:
F------------------|
C------------------|
G------------------|
C--0--7--8--5--5-3-|

F-------------------------------------------------------------|
C-------------------------------------------------------------|
G-3/5--5-5-5--3/7--7-7-7--3/8--8-8-8--3/10--10-10-10----------|
C-----------------------------------------------------0-------|
comments
We did not receive enough feedback on this tab! Please rate:
print report bad tab
1 2 3 4 5
I want to post or [tab]
guest
You may want to rate the tab now too:
select rating
Please do not post tabs as comments. Select "correction" instead!