Oops, an error
Loading. Please wait.

Dilated Bass Tab

version 2
version 2

Whole song

Interactive

194 views 1 this week
no commentswrite comment
1 2 3 4 5
3 more votes to show rating
add to favorites
launch autoscroll
font size
0
reset
guitar tuner
Autoscroll
slow
fast
+/-
esc
set tempo
stop
Help us to improve Ultimate-Guitar.com Take our survey!
×
Author
Difficulty
Tuning
intermediate
C G C F A D
Tabbed by: Texasayses00

E-Mail: Sk8er_element_user@hotmail.com


Atreyu - Dilated

CD - Suicide Notes And Butterfly Kisses

this is one of my first bass tabs. 

Tuning - 4-string drop C (C G C F) 

Keys:
h - hammer on

p - pull off

()- let ring

/ - slide up to note

\ - slide down to note






     Intro:                                                  
F------------------------------------------------------------|
C------------------------------------------------------------|X2
G---------8p7----------8p7----------8p7----------------------|
C0-000000-----7-777777-----8-888888-----5-5555555--5p3-0-----|






     Verse Part 1:                                           
F------------------------------------------------------------|
C------------------------------------------------------------|X4
G------------------------------------------------------------|
C-00000000--77777777--88888888--5555-5\3-0-------------------|

on the 4th time through, the the open note ring so you're 
actually playin this:


       
F------|
C------|
G------|
C-(0)--|

then wait for the small guitar solo, and play this:



      Verse Part 2:                                          |
F------------------------------------------------------------|______
C------------------------------8-7--5p3h3--------------------|      |
G---5-3-5--7-8-7h8p7-5---5-3-5-------------------------------|      |
C-0--------------------0------------------0------------------|      |
                                                                    |
                                                                    |
                                                                    |
after that first time through, you're gonna play                    |BOTH X2
about half of it and put a fill in there (Fill 1)                   |
                                                                    |
                                                                    |
      Verse Part 2+ Fill 1:                                  |      |
F------------------------------------------------------------|______|      
C------------------------------------------------------------|      
G---5-3-5-8-7-8p7h8------------------------------------------|
C-0------------------5555555-8888888-------------------------|


then go back through Verse Part 2 and Verse Part 2+ Fill 1

then after that when the vocals stop screaming play this 


   
                 "have you ever stopped..."
        Fill 2:                                              
F------------------------------------------------------------|__________
C------------------------------------------------------------|          | 
G------------------------------------------------------------|          |
C-55-(5)////-88-(8)------------------------------------------|          |
                                                                        |
                                                                        |
                                                                        |
                                                                        |
                                                                        |
then play this as a fill in a fill                                      |
(yea sorry if i'm makin it confusing)                                   |
just call it like Fill 3 lol                                            |BOTH X2
                                                                        |
                                                                        |
                                                                        |
                                                                        |
                                                                        |
                                                                        |
"..raise up face up to the sun and scream LET IT OUT EXHALE THE PAIN!"  |
         Fill 3:                                                        |
F------------------------------------------------------------|          |
C------------------------------------------------------------|__________|
G------------------------------------------------------------|
C-0-0000000--2-2222222-3-333333------------------------------|





the after you play both of those two times, 
you go back to Verse Part 2 and Verse Part 2+ Fill 1 
and play them two times again


then end on this 


           
F----------|
C----------|
G----------|
C-(0)------|




then let the guitar solo (clean) play 
and when the vocalist starts whispering, hold this note

"stop. Look around. The Stuff you see rebulid, Renown..."            

F-----------|
C-----------|
G-----------|
C-(0)-------|


then play the bridge


          "my arms feel so numb. my heart palputates missing a beat"
    Bridge Part 1:                                                    
F---------------4h5p4-----------------------------------------------|
C----------5-3-------5-0-----------------------------------------|X3
G----3-5------------------------------------------------------|
C-0----------------------5--3----------------------------|


the last time you play it, play it with a Fill (Fill 4)


    Bridge Part 2 with Fill 4:
F---------------------------------------------------------------|
C----------5-3--------------------------------------------------|
G----3-5-3------------------------------------------------------|
C-0------------5555555-8888888----------------------------------|



then play Bridge Part 1 two more times then you're gonna play Bridge Part 3


     


     Bridge Part 3:
F--------------------------------------------|
C----------3-2-------------------------------|X2
G----2-3-2-----------------------------------|
C-0------------3--1-00-----------------------|

you're pretty much playin the same thing as 
Bridge Part 1 only one whole step down 
on the 2nd time, let the open note ring


then after that play this and let them ring

   "...please dont ever close...your eyes...."
F------------------|
C------------------|
G------------------|
C-(5)--(8)--(0)----|
 

let the last note ring all the way until the small guitar solo



      Coda 1:
F----------------------------------|
C----------------------------------|
G----------------------------------|
C-(0)----(7)---(8)----(5)-5\3------|


then end it like this




       Coda 2:
F------------------------------------------------------------------|
C------------------------------------------------------------------|X8
G------------------------------------------------------------------|
C-0-000000--7-777777--8-888888-5-555-5\3--0------------------------|


end with playing Coda 2 8 times! yes 8 times i counted!


well thats my tab...hope u like it and accept it!
Suggest correction
Give kudos to tab author, rate the tab!
1 2 3 4 5
comments
print report bad tab
guest
You may want to rate the tab now too:
select rating
Wanna post a correction for this tab? Suggest correction