Oops, an error
Loading. Please wait.

Doomsday Bass Tab

version 1
version 1

Whole song

Interactive

5,882 views 3 this week
3 commentsread comments
1 2 3 4 5
1 last vote to show rating
add to favorites
launch autoscroll
font size
0
reset
guitar tuner
Autoscroll
slow
fast
+/-
esc
set tempo
stop
Help us to improve Ultimate-Guitar.com Take our survey!
×
Author
Difficulty
novice
PM-Palm Mute

Intro
g|----------------------------------------------------------|
d|----------------------------------------------------------|
a|----------------------------------------------------------|
E|-3--0-0-000-0-3--0-0-0-000-0-3--0-0-0-000-0-3-5-6--0-0-0--|
     PM------|    PM--------|    PM--------|        PM------|

G|----------------------------------------------------------|
D|----------------------------------------------------------|
A|----------------------------------------------------------|
E|-3--0-0-000-0-3--0-0-0-000-0-3--0-0-0-000-0-3-5-6---------|
     PM------|    PM--------|    PM-------------------------|

G|-------------------------------------------------------------|
D|-------------------------------------------------------------|
A|-------------------------------------------------------------|
E|-3--0-0-000-0-3--0-0-0-000-0-3--0-0-0-000-0-3--0-0-5--6-5-3--|
     PM------|    PM--------|    PM--------|    PM-------------|

G|----------------------------------------------------------|
D|----------------------------------------------------------|
A|----------------------------------------------------------|
E|-3--0-0-000-0-3--0-0-0-000-0-3--0-0-0-000-0-3-5-6--6-5-3--|
     PM------|    PM--------|    PM-------------------------|


Verse
G|-------------------------------------------------------------------|
D|-------------------------------------------------------------------| 4x
A|-------------------------------------------------------------------|
E|-3--0-0-000-0-3--0-0-0-000-0-3--0-0-0-000-0-3--0-0-5--6-5-3--------|
     PM------|    PM--------|    PM--------|    PM-------------------|

Fill
G|--------------|
D|--------------|
A|--------------|
E|-5----5-6-5-3-|

Chorus
G|---------------------------------------|
D|---------------------------------------|
a|----------1------------------3---------|
e|-0------------------3------------------|

Verse
F|-------------------------------------------------------------|
C|-------------------------------------------------------------| Repeat
G|-------------------------------------------------------------|
C|-3--0-0-000-0-3--0-0-0-000-0-3--0-0-0-000-0-3--0-0-5--6-5-3--|
     PM------|    PM--------|    PM--------|    PM-------------|

G|----------------------------------------------------------|
D|----------------------------------------------------------| Repeat
A|----------------------------------------------------------|
E|-3--0-0-000-0-3--0-0-0-000-0-3--0-0-0-000-0-3-5-6--6-5-3--|
     PM------|    PM--------|    PM-------------------------|
Chorus
G|---------------------------------------|
D|---------------------------------------|
A|----------1------------------3---------|
E|-0------------------3------------------|

Bridge (this has a weird strumming pattern)
G|--------------------------------------------------|
D|--------------------------------------------------|
A|--------------------------------------------------|
E|-12----11---10----9--7-----12----11---10----9---7-|

Chorus
G|---------------------------------------|
D|---------------------------------------|
A|----------1------------------3---------|
E|-0------------------3------------------|

G|---------------------------------------------------------|
D|---------------------------------------------------------|
A|---------------------------------------------------------|
E|-3--0-0-000-0-3-0-0-0-000-0-30-0-0-0-000-0-3-5-6---------|
     PM------|   PM--------|    PM-------------------------|

G|--------------------------------------------------------------|
D|--------------------------------------------------------------| 3x
A|--------------------------------------------------------------|
E|3--0-0-000-0-3--0-0-0-000-0-3--0-0-0-000-0-3--0-0-5--6-5-3----|
     PM------|    PM--------|    PM--------|    PM--------------|

G|----------------------------------------------------------|
d|----------------------------------------------------------|
a|----------------------------------------------------------|
E|3--0-0-000-0-3--0-0-0-000-0-3--0-0-0-000-0-3-5-6----------|
     PM------|    PM--------|    PM-------------------------|
Suggest correction
Give kudos to tab author, rate the tab!
1 2 3 4 5
comments
print report bad tab
3 comments total.
+1 reply
HH_Emo_666 242 May 09, 2008 01:10 PM

you cant palm mute on a bass? and the chorus is wrong .. i mean, its right but theres two different parts. the first one goes like

G|-------------------------------------------|
D|-------------------------------------------|
A|--5555555---------888888888----------------|
E|---------888888888---------10101010101010--|

and then the second part is

G|-----------------------------------------|
D|-----------------------------------------|
A|--5555555-33333333------------888888888--|
E|------------------33333333333------------|

and also the tuning is Drop-C

0 reply
Swainyness 10 Jun 11, 2008 10:29 PM

bs you noobo my band dose it all the time you gay......... by the way sic tab.....but not to u emo

0 reply
Vicer Reversal 10 Feb 19, 2009 08:58 AM

Atreyu uses drop c tuning

guest
You may want to rate the tab now too:
select rating
Wanna post a correction for this tab? Suggest correction