Oops, an error
Loading. Please wait.

Doomsday Tab

version 1
version 1

Solo

Whole song

Interactive

18,718 views 15 this week
15 commentsread comments
1 2 3 4 5
worth learning
x 7
add to favorites
launch autoscroll
font size
0
reset
how to read this tab
guitar tuner
Tab Pro tools
  • play this tab
  • loop segment
  • change instrument
  • show fretboard
  • metronome
Autoscroll
slow
fast
+/-
esc
set tempo
stop
Contributor
Difficulty
Tuning
intermediate
C G C F A D
                                 Doomsday
                                  Atreyu
                          Lead Sails Paper Anchor

Welp guy’s and gal’s, this is one of Atreyu’s new singles. I watched them in OKC to 
out this song. It’s only the rhythm part though. I don’t have a whammy-bar on my guitar to 
out the lead or I would. But, hope this is good enough for everyone.

Drop C
C-G-C-F-A-D

PM-Palm Mute

Intro
D|----------------------------------------------------------|
A|----------------------------------------------------------|
F|----------------------------------------------------------|
C|3--0-0-000-0-3--0-0-0-000-0-3--0-0-0-000-0-3-5-6--0-0-0---|
G|3--0-0-000-0-3--0-0-0-000-0-3--0-0-0-000-0-3-5-6--0-0-0---|
C|3--0-0-000-0-3--0-0-0-000-0-3--0-0-0-000-0-3-5-6--0-0-0---|
     PM------|    PM--------|    PM--------|        PM------|

D|----------------------------------------------------------|
A|----------------------------------------------------------|
F|----------------------------------------------------------|
C|3--0-0-000-0-30-0-0-0-000-0-30-0-0-0-000-0-3-5-6----------|
G|3--0-0-000-0-30-0-0-0-000-0-30-0-0-0-000-0-3-5-6----------|
C|3--0-0-000-0-30-0-0-0-000-0-30-0-0-0-000-0-3-5-6----------|
     PM------|    PM--------|    PM-------------------------|

D|-------------------------------------------------------------|
A|-------------------------------------------------------------|
F|-------------------------------------------------------------|
C|3--0-0-000-0-3--0-0-0-000-0-3--0-0-0-000-0-3--0-0-5--6-5-3---|
G|3--0-0-000-0-3--0-0-0-000-0-3--0-0-0-000-0-3--0-0-5--6-5-3---|
C|3--0-0-000-0-3--0-0-0-000-0-3--0-0-0-000-0-3--0-0-5--6-5-3---|
     PM------|    PM--------|    PM--------|    PM-------------|

D|----------------------------------------------------------|
A|----------------------------------------------------------|
F|----------------------------------------------------------|
C|3--0-0-000-0-3--0-0-0-000-0-3--0-0-0-000-0-3-5-6--6-5-3---|
G|3--0-0-000-0-3--0-0-0-000-0-3--0-0-0-000-0-3-5-6--6-5-3---|
C|3--0-0-000-0-3--0-0-0-000-0-3--0-0-0-000-0-3-5-6--6-5-3---|
     PM------|    PM--------|    PM-------------------------|


Verse
D|-------------------------------------------------------------------|
A|-------------------------------------------------------------------|
F|-------------------------------------------------------------------|
C|3--0-0-000-0-3--0-0-0-000-0-3--0-0-0-000-0-3--0-0-5--6-5-3-| Play--| 4x
G|3--0-0-000-0-3--0-0-0-000-0-3--0-0-0-000-0-3--0-0-5--6-5-3---------|
C|3--0-0-000-0-3--0-0-0-000-0-3--0-0-0-000-0-3--0-0-5--6-5-3---------|
     PM------|    PM--------|    PM--------|    PM-------------------|

Fill
D|--------------|
A|--------------|
F|--------------|
C|5----5-6-5-3--|
G|5----5-6-5-3--|
C|5----5-6-5-3--|

Chorus
D|---------------------------------------|
A|---------------------------------------|
F|----------3------------------5---------|
C|0---------3---------3--------5---------|
G|0---------1---------3--------3---------|
C|0-------------------3------------------|

Verse
D|-------------------------------------------------------------|
A|-------------------------------------------------------------|
F|-------------------------------------------------------------|
C|3--0-0-000-0-3--0-0-0-000-0-3--0-0-0-000-0-3--0-0-5--6-5-3---| Repeat
G|3--0-0-000-0-3--0-0-0-000-0-3--0-0-0-000-0-3--0-0-5--6-5-3---|
C|3--0-0-000-0-3--0-0-0-000-0-3--0-0-0-000-0-3--0-0-5--6-5-3---|
     PM------|    PM--------|    PM--------|    PM-------------|

D|----------------------------------------------------------|
A|----------------------------------------------------------|
F|----------------------------------------------------------|
C|3--0-0-000-0-3--0-0-0-000-0-3--0-0-0-000-0-3-5-6--6-5-3---| Repeat
G|3--0-0-000-0-3--0-0-0-000-0-3--0-0-0-000-0-3-5-6--6-5-3---|
C|3--0-0-000-0-3--0-0-0-000-0-3--0-0-0-000-0-3-5-6--6-5-3---|
     PM------|    PM--------|    PM-------------------------|
Chorus
D|---------------------------------------|
A|---------------------------------------|
F|----------3------------------5---------|
C|0---------3---------3--------5---------|
G|0---------1---------3--------3---------|
C|0-------------------3------------------|

Bridge (this has a weird strumming pattern)
D|--------------------------------------------------|
A|--------------------------------------------------|
F|--------------------------------------------------|
C|--------------------------------------------------|
G|--------------------------------------------------|
C|12----11---10----9--7-----12----11---10----9---7--|

Chorus
D|---------------------------------------|
A|---------------------------------------|
F|----------3------------------5---------|
C|0---------3---------3--------5---------|
G|0---------1---------3--------3---------|
C|0-------------------3------------------|

D|---------------------------------------------------------|
A|---------------------------------------------------------|
F|---------------------------------------------------------|
C|3--0-0-000-0-3-0-0-0-000-0-30-0-0-0-000-0-3-5-6----------|
G|3--0-0-000-0-3-0-0-0-000-0-30-0-0-0-000-0-3-5-6----------|
C|3--0-0-000-0-3-0-0-0-000-0-30-0-0-0-000-0-3-5-6----------|
     PM------|   PM--------|    PM-------------------------|

D|--------------------------------------------------------------|
A|--------------------------------------------------------------|
F|--------------------------------------------------------------|
C|3--0-0-000-0-3--0-0-0-000-0-3--0-0-0-000-0-3--0-0-5--6-5-3----| 3x
G|3--0-0-000-0-3--0-0-0-000-0-3--0-0-0-000-0-3--0-0-5--6-5-3----|
C|3--0-0-000-0-3--0-0-0-000-0-3--0-0-0-000-0-3--0-0-5--6-5-3----|
     PM------|    PM--------|    PM--------|    PM--------------|

D|----------------------------------------------------------|
A|----------------------------------------------------------|
F|----------------------------------------------------------|
C|3--0-0-000-0-3--0-0-0-000-0-3--0-0-0-000-0-3-5-6----------|
G|3--0-0-000-0-3--0-0-0-000-0-3--0-0-0-000-0-3-5-6----------|
C|3--0-0-000-0-3--0-0-0-000-0-3--0-0-0-000-0-3-5-6----------|
     PM------|    PM--------|    PM-------------------------|

I know this isn’t 100% correct, but it covers majority of it. So I hope everyone enjoys it.
comments
print report bad tab
15 comments total. Showing first comments.
0 reply
bass_boy92 wrote on August 29 2007, 07:31 am

dude this tab is really good for a first attempt! im not too sure about the bridge though but its very close! 4*

0 reply
SickorSaneSF wrote on August 29 2007, 01:39 pm

this is really good. the bridge is a bit off though but i think you said that and so did bass boy. i was trying to figure this song out and this is pretty much what i came up with too. 4*

0 reply
doughboy713 wrote on August 29 2007, 05:51 pm

you should have picked when two become one, but over all nice tab i suppose

4*

I want to post or [tab]
guest
You may want to rate the tab now too:
select rating
Please do not post tabs as comments. Select "correction" instead!