Oops, an error
Loading. Please wait.

Doomsday Bass Tab

version 2
version 2

Whole song

Interactive

3,570 views 1 this week
1 commentread comment
1 2 3 4 5
please rate
add to favorites
launch autoscroll
font size
0
reset
guitar tuner
Tab Pro tools
  • play this tab
  • loop segment
  • change instrument
  • show fretboard
  • metronome
×
Best way to learn
"Doomsday"
Autoscroll
slow
fast
+/-
esc
set tempo
stop
Contributor
Tuning
C G C F A D
#----------------------------------PLEASE NOTE---------------------------------#
#This file is the author's own work and represents their interpretation of the #
#song. You may only use this file for private study, scholarship, or research. #
#------------------------------------------------------------------------------##

                               DOOMSDAY (Bassline)
                              As recorded by Atreyu
                  (From the 2007 Album LEAD SAILS PAPER ANCHOR)

Words and Music by Atreyu
Transcribed by Zero Vulcan

Gtr I (C G C F) - 'Untitled'
Gtr II (C G C F) - 'Untitled'
Gtr III (C G C F) - 'Untitled'

  Q=82
 4/4
  Gtrs I, III
  e E Q  H      Q  E. S +S  S +S  S Q
|-------------|------------------------|
|-------------|------------------------|
|-------------|------------------------|
|-0-----------|-------3-(3)-5-(5)-6----|
|
| Gtr II
| W             W
|-------------|------------------------|
|-------------|------------------------|
|-------------|------------------------|
|-------------|------------------------|


  e   E E. S e E E. S    e  E E. S  S  S S S Q
|---------------------|--------------------------||
|---------------------|--------------------------||
|---------------------|--------------------------||
|-0--------3-0------3-|--0-------3-----5---6-----||
|
| <
| \1/
| W                     +H         +Q        Q
|---------------------|--------------------------||
|-0-------------------|-(0)--------(0)-----------||
|---------------------|--------------------------||
|-0-------------------|-(0)--------(0)-----------||


  S S S S T T S S S S S S S T T S S S   S S S S T T S S S S S S S S S S S
|-------------------------------------|-----------------------------------|
|-------------------------------------|-----------------------------------|
|-------------------------------------|-----------------------------------|
|-0-0-0-0-0-0-0-0-3-0-0-0-0-0-0-0-0-3-|-0-0-0-0-0-0-0-0-3-0-0-0-5-0-6-5-3-|


  S S S S T T S S S S S S S T T S S S   S S S S T T S S S S S S S S S S S
|-------------------------------------|-----------------------------------||
|-------------------------------------|-----------------------------------||
|-------------------------------------|-----------------------------------||
|-0-0-0-0-0-0-0-0-3-0-0-0-0-0-0-0-0-3-|-0-0-0-0-0-0-0-0-3-0-0-0-5-0-6-5-3-||


  $
  S S S S T T S S S S S S S T T S S S   S S S S T T S S S S S S S S S S S
|-------------------------------------|-----------------------------------|
|-------------------------------------|-----------------------------------|
|-------------------------------------|-----------------------------------|
|-0-0-0-0-0-0-0-0-3-0-0-0-0-0-0-0-0-3-|-0-0-0-0-0-0-0-0-3-0-0-0-5-0-6-5-3-|


  S S S S T T S S S S S S S T T S S S   S S S S T T S S S S S S S S S S S
|-------------------------------------|-----------------------------------|
|-------------------------------------|-----------------------------------|
|-------------------------------------|-----------------------------------|
|-0-0-0-0-0-0-0-0-3-0-0-0-0-0-0-0-0-3-|-0-0-0-0-0-0-0-0-3-0-0-0-5-0-6-5-3-|


  S S S S T T S S S S S S S T T S S S   S S S S T T S S S S S S S S S S S
|-------------------------------------|-----------------------------------|
|-------------------------------------|-----------------------------------|
|-------------------------------------|-----------------------------------|
|-0-0-0-0-0-0-0-0-3-0-0-0-0-0-0-0-0-3-|-0-0-0-0-0-0-0-0-3-0-0-0-5-0-6-5-3-|


  S S S S T T S S S S S S S T T S S S   S S S S T T S S S S S S S S S S S
|-------------------------------------|-----------------------------------|
|-------------------------------------|-----------------------------------|
|-------------------------------------|-----------------------------------|
|-0-0-0-0-0-0-0-0-3-0-0-0-0-0-0-0-0-3-|-0-0-0-0-0-0-0-0-3-0-0-0-5-0-6-5-3-|


                            $$
  Q  +E  +S  e e e S S S    E. S S S E +S  S E S S S S
|------------------------||----------------------------|
|------------------------||----------------------------|
|------------------------||-5--5-5-5-1-(1)-1-1-1-1-1-1-|
|-5--(5)-(5)-6-5-3-0-1-0-||----------------------------|


  E. S S S E +S  S E S S S S
|----------------------------|
|-3--3-3-3-------------------|
|----------3-(3)-3-3-3-3-3-3-|
|----------------------------|


  E. S S S E +E. S S S S S   E. S S S E +S  S E S S S S
|--------------------------|----------------------------|
|--------------------------|----------------------------|
|----------1-(1)-1-1-1-1---|----------3-(3)-3-3-3-3-3-3-|
|-0--0-0-0---------------0-|-3--3-3-3-------------------|


  E. S S S E +S  S E S S S S
|------------------------------|
|------------------------------|
|-5--5-5-5-1-(1)-1-1-1-1-1-1---|
|------------------------------|


  E. S S S E +S  S E S S S S   E. S S S E +E. S S S S S
|----------------------------|--------------------------|
|-3--3-3-3-------------------|--------------------------|
|----------3-(3)-3-3-3-3-3-3-|----------1-(1)-1-1-1-1---|
|----------------------------|-0--0-0-0---------------0-|


                    To Coda
                    To Coda
  E. S S S E +S  S E S S S S
|------------------------------||
|------------------------------||
|----------3-(3)-3-3-3-3-3-3---||
|-3--3-3-3---------------------||


                                                            D.S. al Coda
  S S S S T T S S S S S S S T T S S S   S S S S T T S S S S S S S S S S S
|-------------------------------------|-----------------------------------||
|-------------------------------------|-----------------------------------||
|-------------------------------------|-----------------------------------||
|-0-0-0-0-0-0-0-0-3-0-0-0-0-0-0-0-0-3-|-0-0-0-0-0-0-0-0-3-0-0-0-5-0-6-5-3-||


  &
  Gtr I
  W          W           E  S  S  S  S  E  S  S  S  S  S  S  S S
|----------|----------|------------------------------------------|
|----------|----------|------------------------------------------|
|----------|----------|-------12-10----------12-10---------------|
|----------|----------|-12-12-------12-11-11-------12-10-10-10-9-|


   S  S  S  S  S  S E +S  S S S S S S S
|-----------------------------------------|
|-----------------------------------------|
|-----------------------------------------|
|-10-10-10-10-10-12-9-(9)-9-9-9-9s7-5s7---|


   E  S  S  S  S  E  S  S  S  S  S  S  S S    S  S  S  S  S  S E +S  S S S S S S S
|------------------------------------------|---------------------------------------|
|------------------------------------------|---------------------------------------|
|-------12-10----------12-10---------------|---------------------------------------|
|-12-12-------12-11-11-------12-10-10-10-9-|-10-10-10-10-10-12-9-(9)-9-9-9-9s7-5s7-|


   E  S  S  S  S  E  S  S  S  S  S  S  S S
|--------------------------------------------|
|--------------------------------------------|
|-------12-10----------12-10-----------------|
|-12-12-------12-11-11-------12-10-10-10-9---|


   S  S  S  S  S  S E +S  S S S S S S S
|---------------------------------------|
|---------------------------------------|
|---------------------------------------|
|-10-10-10-10-10-12-9-(9)-9-9-9-9s7-5s7-|


   E  S  S  S  S  E  S  S  S  S  S  S  S S
|------------------------------------------|
|------------------------------------------|
|-------12-10----------12-10---------------|
|-12-12-------12-11-11-------12-10-10-10-9-|


                                               D.S.S. al Dbl. Coda
                                                              |-3-|
   S  S  S  S  S  S E +S  S S S S S S S    W          H    Q  E E E
|---------------------------------------||----------|----------------||
|---------------------------------------||----------|----------------||
|---------------------------------------||----------|----------------||
|-10-10-10-10-10-12-9-(9)-9-9-9-9s7-5s7-||----------|---------0-0-0--||


  &&
  Gtrs I, III
  E E Q  Q  E S S   E E E S E E S Q    S S S S T T S S S S S S S T T S S S
|-----------------|------------------|--------------------------------------|
|-----------------|------------------|--------------------------------------|
|-----------------|------------------|--------------------------------------|
|-0-------------3-|-0-------3-5-6----|-0-0-0-0-0-0-0-0-3-0-0-0-0-0-0-0-0-3--|


  S S S S T T S S S S S S S S S S S
|-----------------------------------|
|-----------------------------------|
|-----------------------------------|
|-0-0-0-0-0-0-0-0-3-0-0-0-5-0-6-5-3-|


  S S S S T T S S S S S S S T T S S S   S S S S T T S S S +S  E S Q
|-------------------------------------|--------------------------------*|
|-------------------------------------|--------------------------------*|
|-------------------------------------|--------------------------------*|
|-0-0-0-0-0-0-0-0-3-0-0-0-0-0-0-0-0-3-|-0-0-0-0-0-0-0-0-3-(3)-5-6------*|


Duration Legend
---------------
W - whole; H - half; Q - quarter; E - 8th; S - 16th; T - 32nd; X - 64th; a - acciaccatura
+ - note tied to previous; . - note dotted; .. - note double dotted
Uncapitalized letters represent notes that are staccato (1/2 duration)
Irregular groupings are notated above the duration line
Duration letters will always appear directly above the note/fret number it represents the
duration for.  Duration letters with no fret number below them represent rests.  Multi-
bar rests are notated in the form Wxn, where n is the number of bars to rest for.  Low
melody durations appear below the staff

Tablature Legend
----------------
 h   - hammer-on
 p   - pull-off
 b   - bend
 pb  - pre-bend
 r   - bend release (if no number after the r, then release immediately)
 /\  - slide into or out of (from/to "nowhere")
 s   - legato slide
 S   - shift slide
  - natural harmonic
[n]  - artificial harmonic
n(n) - tapped harmonic
 ~   - vibrato
 tr  - trill
 T   - tap
 TP  - trem. picking
 PM  - palm muting
\n/  - tremolo bar dip; n = amount to dip
 \n  - tremolo bar down
 n/  - tremolo bar up
/n\  - tremolo bar inverted dip
 =   - hold bend; also acts as connecting device for hammers/pulls
 <>  - volume swell (louder/softer)
 x   - on rhythm slash represents muted slash
 o   - on rhythm slash represents single note slash

Misc Legend
-----------
 |  - bar
||  - double bar
||o - repeat start
o|| - repeat end
*|  - double bar (ending)
 :  - bar (freetime)
 $  - Segno
 &  - Coda
Tempo markers -  = BPM(8/16=s8/s16), where s8 = swing 8ths, s16 = swing 16ths
comments
We did not receive enough feedback on this tab! Please rate:
print report bad tab
1 2 3 4 5
1 comment total.
0 reply
TheMasterofP wrote on June 26 2012, 09:39 am

The notes seem to be all right!
But why did you write it that complicated?
And I'm sure that there aren't 32nd notes, this song is quick but not fast...
Anyway, four stars for this good job!

I want to post or [tab]
guest
You may want to rate the tab now too:
select rating
Please do not post tabs as comments. Select "correction" instead!