Oops, an error
Loading. Please wait.

Doomsday Tab

version 2
version 2

Whole song

Interactive

35,939 views 6 this week
11 commentsread comments
1 2 3 4 5
accurate
x 26
add to favorites
launch autoscroll
font size
0
reset
how to read this tab
guitar tuner
Autoscroll
slow
fast
+/-
esc
set tempo
stop
Help us to improve Ultimate-Guitar.com Take our survey!
×
Author
-------------------------------------------------------------------------------
                             Doomsday - Atreyu
-------------------------------------------------------------------------------
Tabbed by:Slurms
Email:slurms.mckenzie@hotmail.com

Tuning : CGCFAD

Intro : Rhythm Guitar
D|--------------------------------------------------------------------------|
A|--------------------------------------------------------------------------|
F|--------------------------------------------------------------------------|
C|--0--0-0-0--000--0--3-0-----0-0-0--000--3-0-----0-0-0--000-0--3--5--6-----|
G|--0--0-0-0--000--0--3-0-----0-0-0--000--3-0-----0-0-0--000-0--3--5--6-----| x 4
C|--0--0-0-0--000--0--3-0-----0-0-0--000--3-0-----0-0-0--000-0--3--5--6-----|

Intro : Lead Guitar
D|------------------------------------------------------------------------------|
A|----------------------------------------------------------17tp9h10------------|
F|---12b-12*p10----12-14/-----Series Of Pinch Harmonics`s Then Tap Above--------|
C|--------------12--------------------------------------------------------------|
G|------------------------------------------------------------------------------|
C|------------------------------------------------------------------------------|



 
Verse : Both Guitars
D|--------------------------------------------------------------------------|
A|--------------------------------------------------------------------------|
F|--------------------------------------------------------------------------|
C|--0--0-0-0--000--0--3-0-----0-0-0--000--3-0-----0-0-0--000-0--3--5--6-----|
G|--0--0-0-0--000--0--3-0-----0-0-0--000--3-0-----0-0-0--000-0--3--5--6-----| x 4
C|--0--0-0-0--000--0--3-0-----0-0-0--000--3-0-----0-0-0--000-0--3--5--6-----|

D|----------------------|
A|----------------------|
F|----------------------|
C|--5-----------6-5-3-0-|
G|--5-Let Ring--6-5-3-0-| 
C|--5-----------6-5-3-0-|





Chorus : Rhythm Guitar
D|--------------------------------------------------------------------------|
A|--------------------------------------------------------------------------|
F|--7-7-7-7-7-7------------------------------------5-5-5-5-5-5-5-5-5-5------|
C|--7-7-7-7-7-7--8-8-8-8-8-8-8-8-8-8--3-3-3-3-3-3--5-5-5-5-5-5-5-5-5-5------|
G|--5-5-5-5-5-5--8-8-8-8-8-8-8-8-8-8--3-3-3-3-3-3--3-3-3-3-3-3-3-3-3-3------| x4
C|---------------8-8-8-8-8-8-8-8-8-8--3-3-3-3-3-3---------------------------|

Chorus : Lead Guitar (Same strumming pattern as Rhythm But These Chords)
D|-----------------------------------------------------------------------|
A|-----------------------------------------------------------------------|
F|-7-7-7-7-7-7--3-3-3-3-3-3-3-3-3-3--14-14-14-14-14-14--12-12-12-12-12---|
C|-x-x-x-x-x-x--x-x-x-x-x-x-x-x-x-x--x--x--x---x--x--x--x---x--x--x--x---| x4
G|-5-5-5-5-5-5--1-1-1-1-1-1-1-1-1-1--12-12-12-12-12-12--10-10-10-10-10---|
C|-----------------------------------------------------------------------|



Verse : Both Guitars
D|--------------------------------------------------------------------------|
A|--------------------------------------------------------------------------|
F|--------------------------------------------------------------------------|
C|--0--0-0-0--000--0--3-0-----0-0-0--000--3-0-----0-0-0--000-0--3--5--6-----|
G|--0--0-0-0--000--0--3-0-----0-0-0--000--3-0-----0-0-0--000-0--3--5--6-----| x 4
C|--0--0-0-0--000--0--3-0-----0-0-0--000--3-0-----0-0-0--000-0--3--5--6-----|

D|----------------------|
A|----------------------|
F|----------------------|
C|--5-----------6-5-3-0-|
G|--5-Let Ring--6-5-3-0-| 
C|--5-----------6-5-3-0-|






Chorus : Rhythm Guitar
D|--------------------------------------------------------------------------|
A|--------------------------------------------------------------------------|
F|--7-7-7-7-7-7------------------------------------5-5-5-5-5-5-5-5-5-5------|
C|--7-7-7-7-7-7--8-8-8-8-8-8-8-8-8-8--3-3-3-3-3-3--5-5-5-5-5-5-5-5-5-5------|
G|--5-5-5-5-5-5--8-8-8-8-8-8-8-8-8-8--3-3-3-3-3-3--3-3-3-3-3-3-3-3-3-3------| x4
C|---------------8-8-8-8-8-8-8-8-8-8--3-3-3-3-3-3---------------------------|

Chorus : Lead Guitar (Same strumming pattern as Rhythm But These Chords)
D|-----------------------------------------------------------------------|
A|-----------------------------------------------------------------------|
F|-7-7-7-7-7-7--3-3-3-3-3-3-3-3-3-3--14-14-14-14-14-14--12-12-12-12-12---|
C|-x-x-x-x-x-x--x-x-x-x-x-x-x-x-x-x--x--x--x---x--x--x--x---x--x--x--x---| x4
G|-5-5-5-5-5-5--1-1-1-1-1-1-1-1-1-1--12-12-12-12-12-12--10-10-10-10-10---|
C|-----------------------------------------------------------------------|



Breakdown : Both Guitars
D|------------------------------------------------------------------------------|
A|------------------------------------------------------------------------------|
F|---7--6--5--3-----------------------------------------------------------------|
C|---x--x--x--x--7-----Strum Each Chord A Couple Of Times-----------------------|
G|---5--4--3--1--x--------------------------------------------------------------|
C|---------------7--------------------------------------------------------------|






Chorus : Rhythm Guitar
D|--------------------------------------------------------------------------|
A|--------------------------------------------------------------------------|
F|--7-7-7-7-7-7------------------------------------5-5-5-5-5-5-5-5-5-5------|
C|--7-7-7-7-7-7--8-8-8-8-8-8-8-8-8-8--3-3-3-3-3-3--5-5-5-5-5-5-5-5-5-5------|
G|--5-5-5-5-5-5--8-8-8-8-8-8-8-8-8-8--3-3-3-3-3-3--3-3-3-3-3-3-3-3-3-3------| x4
C|---------------8-8-8-8-8-8-8-8-8-8--3-3-3-3-3-3---------------------------|

Chorus : Lead Guitar (Same strumming pattern as Rhythm But These Chords)
D|-----------------------------------------------------------------------|
A|-----------------------------------------------------------------------|
F|-7-7-7-7-7-7--3-3-3-3-3-3-3-3-3-3--14-14-14-14-14-14--12-12-12-12-12---|
C|-x-x-x-x-x-x--x-x-x-x-x-x-x-x-x-x--x--x--x---x--x--x--x---x--x--x--x---| x4
G|-5-5-5-5-5-5--1-1-1-1-1-1-1-1-1-1--12-12-12-12-12-12--10-10-10-10-10---|
C|-----------------------------------------------------------------------|




Outro :  Both Guitars
D|--------------------------------------------------------------------------|
A|--------------------------------------------------------------------------|
F|--------------------------------------------------------------------------|
C|--0--0-0-0--000--0--3-0-----0-0-0--000--3-0-----0-0-0--000-0--3--5--6-----|
G|--0--0-0-0--000--0--3-0-----0-0-0--000--3-0-----0-0-0--000-0--3--5--6-----| x 3
C|--0--0-0-0--000--0--3-0-----0-0-0--000--3-0-----0-0-0--000-0--3--5--6-----|


| /  slide up
| \  slide down
| h  hammer-on
| p  pull-off
| ~  vibrato
| +  harmonic
| x  Mute note
| *  Pinch Harmonic
===============================================================================
Suggest correction
comments
print report bad tab
11 comments total. Showing first comments.
0 reply
Mikey-H 35 wrote on September 5 2007, 08:24 am

Very nice ;) intro needs a bit of work but apart from that its pretty good :) 4 stars

0 reply
Blood Hawk 70 wrote on September 11 2007, 06:39 pm

NEED SOLOS!!!

-2 reply
atreyunderworld 31 wrote on January 8 2008, 01:46 pm

the intro is
guitar
2
C|-0~~~-3p0------------3p0--------------3p0--------------3---------|
G|-0~~~-3p0------------3p0--------------3p0----
----------3---------|
C|-0~~~-3p0-0-0-00-0-0-3p0-0-0-00-0-0-0-3p0-0-0-0-00-0-0-3-0-0-0-0-|
. . . .. . .
. . .. . . . . . .. . . . . .
.

C|-3-0-0-0-00-0-0-33-0-0-0-00-0-0-33-0-0-0-00-0-0-3-5-6-|
G|-3-0-0-0-00-0-0-33-0-0-0-00-0-0-33-0-0-0-00-0-0-3-5-6-
|
C|-3-0-0-0-00-0-0-33-0-0-0-00-0-0-33-0-0-0-00-0-0-3-5-6-|
. . . .. . . . . . .. . . . . . .. . .

guitar 1
C|-3-30-30-3-5-6-|
G|-3-30-30-3-5-6-|only hit when the guitar above hits the same
notes
C|-3-30-30-3-5-6-|

anyway.. im not the guy who tabbed it so.. im not gonna tell you exactly when to hit notes
or any kind of that shit :p
but if you have questions ask.
good job with the chorus Slurms

guest
You may want to rate the tab now too:
select rating
Wanna post a correction for this tab? Suggest correction