Oops, an error
Loading. Please wait.

Doomsday Tab

version 4
version 4

Whole song

Interactive

2,367 views 1 this week
no commentswrite comment
1 2 3 4 5
2 more votes to show rating
add to favorites
launch autoscroll
font size
0
reset
how to read this tab
guitar tuner
Autoscroll
slow
fast
+/-
esc
set tempo
stop
Help us to improve Ultimate-Guitar.com Take our survey!
×
#----------------------------------PLEASE NOTE---------------------------------#
#This file is the author's own work and represents their interpretation of the #
#song. You may only use this file for private study, scholarship, or research. #
#------------------------------------------------------------------------------##

                                    DOOMSDAY
                              As recorded by Atreyu
                  (From the 2007 Album LEAD SAILS PAPER ANCHOR)

Words and Music by Atreyu
Transcribed by DuffMcKagan7179

Gtr I (C G C F A D) - 'Guitar I'
Gtr II (C G C F A D) - 'Guitar II'
Gtr III (C G C F A D) - 'Extra Guitar'
Gtr IV (D G C F A D) - 'Piano'

 Intro
  Q=82
 4/4
  Gtr I
  e   E   Q         H                   Q       E.       S S S S S Q
|-------------------------------------|-------------------------------------|
|-------------------------------------|-------------------------------------|
|-------------------------------------|-------------------------------------|
|-0-----------------------------------|------------------3---5---6----------|
|-0-----------------------------------|------------------3---5---6----------|
|-0-----------------------------------|------------------3---5---6----------|
|
| Gtr II
|   PM----------|   PM------------|     PM-------------|   PM  PM  PM----|
| S S S S T T S S S S S S S T T S S S   S S S S T  T S S S S S S S S S S S
|-------------------------------------|-------------------------------------|
|-------------------------------------|-------------------------------------|
|-------------------------------------|-------------------------------------|
|-------------------------------------|-------------------------------------|
|-0-0-0-0-0-0-0-0-3-0-0-0-0-0-0-0-0-3-|-0-0-0-0-0--0-0-0-3-0-5-0-6-0-0-0-0--|
|-0-0-0-0-0-0-0-0-3-0-0-0-0-0-0-0-0-3-|-0-0-0-0-0--0-0-0-3-0-5-0-6-0-0-0-0--|


  D5               F5D5               F5  D5               F5D5G5D5G#5
  Gtrs I, II
  e   E   E.       S e   E   E.       S   e   E   E.       S S S S S Q
|---------------------------------------|--------------------------------||
|---------------------------------------|--------------------------------||
|---------------------------------------|--------------------------------||
|-0----------------3-0----------------3-|-0----------------3---5---6-----||
|-0----------------3-0----------------3-|-0----------------3---5---6-----||
|-0----------------3-0----------------3-|-0----------------3---5---6-----||
|
| Gtr III
|   PM-----------|   PM-------------|     PM-------------|   PM  PM
| S S S S T  T S S S S S S S T  T S S S   S S S S T  T S S S S S S S Q
|---------------------------------------|--------------------------------||
|---------------------------------------|--------------------------------||
|---------------------------------------|--------------------------------||
|---------------------------------------|--------------------------------||
|-0-0-0-0-0--0-0-0-3-0-0-0-0-0--0-0-0-3-|-0-0-0-0-0--0-0-0-3-0-5-0-6-----||
|-0-0-0-0-0--0-0-0-3-0-0-0-0-0--0-0-0-3-|-0-0-0-0-0--0-0-0-3-0-5-0-6-----||


 Intro Solo
  D5                     F5    D5                           F5
  Gtr III
                                                  \2
               ~~~~                       ~~~~~~~~~~~~
  Q           +E.        S     +S  T T s  S      +Q
|-------------------------------------------------------------|
|-8b10========(8)r-------8b10==(8)r8p6-8-[8]b10==(8)r---------|
|-------------------------------------------------------------|
|-------------------------------------------------------------|
|-------------------------------------------------------------|
|-------------------------------------------------------------|
|
| Gtrs I, II
|       PM-------------|        PM------------------------|
| S     S S S  T   T S S S      S  S   S  S       T   T S S S
|-------------------------------------------------------------|
|-------------------------------------------------------------|
|-------------------------------------------------------------|
|-------------------------------------------------------------|
|-0-----0-0-0--0---0-0-0-3------0--0---0--0-------0---0-0-0-3-|
|-0-----0-0-0--0---0-0-0-3------0--0---0--0-------0---0-0-0-3-|


  D5                          F5  D5          G5  D5  G#G5F5
                                               ~~~~~~~
  s  S   S   S   S     S   S   S   S   S   S   S  +Q
|---[8]-[7]-[6]-[5]-------------------------------------------|
|---------------------[8]-[7]-[6]-[5]-[4]-[3]-[2]-(2)---------|
|-------------------------------------------------------------|
|-------------------------------------------------------------|
|-0-----------------------------------------------------------|
|-0-----------------------------------------------------------|
|
| PM--------------------------------------|        PM
| S  S   S   S   T  T  S   S   S   S   S   S   S   S  S S S
|-------------------------------------------------------------|
|-------------------------------------------------------------|
|-------------------------------------------------------------|
|-------------------------------------------------------------|
|-0--0---0---0---0--0--0---0---3---0---0---0---5---0--6-5-3---|
|-0--0---0---0---0--0--0---0---3---0---0---0---5---0--6-5-3---|


  D5                               F5  D5                               F5
   T    T        T    T        T        T    T        T    T        T
   T T  T T T T  T T  T T T T  T T T T  T T  T T T T  T T  T T T T  T T T T
|-12p8-12p8p7p5-12p8-12p8p7p5-15p8p7p5-12p8-12p8p7p5-12p8-12p8p7p5-17p3h7p5--|
|----------------------------------------------------------------------------|
|----------------------------------------------------------------------------|
|----------------------------------------------------------------------------|
|----------------------------------------------------------------------------|
|----------------------------------------------------------------------------|
|
|       PM--------------------|         PM-------------------------|
|  S    S   S    S    T T S    S   S    S    S   S    S    T T S    S   S
|----------------------------------------------------------------------------|
|----------------------------------------------------------------------------|
|----------------------------------------------------------------------------|
|----------------------------------------------------------------------------|
|--0----0---0----0----0-0-0----0---3----0----0---0----0----0-0-0----0---3----|
|--0----0---0----0----0-0-0----0---3----0----0---0----0----0-0-0----0---3----|


  D5                            F5   D5G5    D5G#5   D5G#G5F5
                          |-3-|
  T T T T T T T T T T T T T T T e       e       e      S S S
|-------------------------5-7-8------------------------------||
|-------------------5-7-8-------6-------8-------9------------||
|-------------4-5-7-------------8b10---10b12---11b13---------||
|-------4-5-7------------------------------------------------||
|-4-5-7------------------------------------------------------||
|------------------------------------------------------6-5-3-||
|
|     PM------------------|          PM      PM      PM
| S   S   S   S   T T S   S     S    S  S    S  S    S S S S
|------------------------------------------------------------||
|------------------------------------------------------------||
|------------------------------------------------------------||
|------------------------------------------------------------||
|-0---0---0---0---0-0-0---0-----3----0--5----0--6----0-6-5-3-||
|-0---0---0---0---0-0-0---0-----3----0--5----0--6----0-6-5-3-||


 Verse
  $
  D5              F5D5              F5  D5              F5D5    G5D5G#G5F5
  Gtrs I, II
    PM----------|   PM------------|     PM------------|   PM--|   PM
  S S S S T T S S S S S S S T T S S S   S S S S T T S S S S S S S S S S S
|-------------------------------------|-----------------------------------|
|-------------------------------------|-----------------------------------|
|-------------------------------------|-----------------------------------|
|-------------------------------------|-----------------------------------|
|-0-0-0-0-0-0-0-0-3-0-0-0-0-0-0-0-0-3-|-0-0-0-0-0-0-0-0-3-0-0-0-5-0-6-5-3-|
|-0-0-0-0-0-0-0-0-3-0-0-0-0-0-0-0-0-3-|-0-0-0-0-0-0-0-0-3-0-0-0-5-0-6-5-3-|


  D5              F5D5              F5  D5              F5D5    G5D5G#G5F5
    PM----------|   PM------------|     PM------------|   PM--|   PM
  S S S S T T S S S S S S S T T S S S   S S S S T T S S S S S S S S S S S
|-------------------------------------|-----------------------------------|
|-------------------------------------|-----------------------------------|
|-------------------------------------|-----------------------------------|
|-------------------------------------|-----------------------------------|
|-0-0-0-0-0-0-0-0-3-0-0-0-0-0-0-0-0-3-|-0-0-0-0-0-0-0-0-3-0-0-0-5-0-6-5-3-|
|-0-0-0-0-0-0-0-0-3-0-0-0-0-0-0-0-0-3-|-0-0-0-0-0-0-0-0-3-0-0-0-5-0-6-5-3-|


  D5              F5D5              F5  D5              F5D5    G5D5G#G5F5
    PM----------|   PM------------|     PM------------|   PM--|   PM
  S S S S T T S S S S S S S T T S S S   S S S S T T S S S S S S S S S S S
|-------------------------------------|-----------------------------------|
|-------------------------------------|-----------------------------------|
|-------------------------------------|-----------------------------------|
|-------------------------------------|-----------------------------------|
|-0-0-0-0-0-0-0-0-3-0-0-0-0-0-0-0-0-3-|-0-0-0-0-0-0-0-0-3-0-0-0-5-0-6-5-3-|
|-0-0-0-0-0-0-0-0-3-0-0-0-0-0-0-0-0-3-|-0-0-0-0-0-0-0-0-3-0-0-0-5-0-6-5-3-|


  D5              F5D5              F5  D5              F5D5    G5D5G#G5F5
    PM----------|   PM------------|     PM------------|   PM--|   PM
  S S S S T T S S S S S S S T T S S S   S S S S T T S S S S S S S S S S S
|-------------------------------------|-----------------------------------|
|-------------------------------------|-----------------------------------|
|-------------------------------------|-----------------------------------|
|-------------------------------------|-----------------------------------|
|-0-0-0-0-0-0-0-0-3-0-0-0-0-0-0-0-0-3-|-0-0-0-0-0-0-0-0-3-0-0-0-5-0-6-5-3-|
|-0-0-0-0-0-0-0-0-3-0-0-0-0-0-0-0-0-3-|-0-0-0-0-0-0-0-0-3-0-0-0-5-0-6-5-3-|


                           Chorus
                            $$
  G5         G#G5F5D5F5D5            Bb5
                   PM
  Q  +E  +S  e e e S S S    E. S S S E +S  S E S S S S
|------------------------||----------------------------|
|------------------------||----------------------------|
|------------------------||----------------------------|
|------------------------||-7--7-7-0-3-(3)-3-3-3-3-3-3-|
|-5--(5)-(5)-6-5-3-0-3-0-||-5--5-5-0-1-(1)-1-1-1-1-1-1-|
|-5--(5)-(5)-6-5-3-0-3-0-||----------------------------|


  F5       C5
  E. S S S E +S  S E S S S S
|----------------------------|
|----------------------------|
|-5--5-5-0-------------------|
|-3--3-3-0-5-(5)-5-5-5-5-5-5-|
|----------3-(3)-3-3-3-3-3-3-|
|----------------------------|


  D5       Bb5           D5  F5       C5
  Gtr III
  W                          W
|--------------------------|----------------------------|
|--------------------------|----------------------------|
|--------------------------|----------------------------|
|--------------------------|----------------------------|
|--------------------------|----------------------------|
|--------------------------|----------------------------|
|
| Gtrs I, II
| E. S S S E +E. S S S S S   E. S S S E +S  S E S S S S
|--------------------------|----------------------------|
|--------------------------|----------------------------|
|--------------------------|----------------------------|
|----------3-(3)-3-3-3-3---|--------0-5-(5)-5-5-5-5-5-5-|
|-0--0-0-0-1-(1)-1-1-1-1-0-|-3--3-3-0-3-(3)-3-3-3-3-3-3-|
|-0--0-0-0---------------0-|-3--3-3---------------------|


  Dm
  S  S S S S S S S  S  S S S S S S S
|----------5-----------------5-------|
|----6---6---6---6-----6---6---6---6-|
|-7----7-------7----7----7-------7---|
|------------------------------------|
|------------------------------------|
|------------------------------------|
|
| E.     S S S E   +S  S E   S S S S
|------------------------------------|
|------------------------------------|
|------------------------------------|
|-7------7-7-0-3---(3)-3-3---3-3-3-3-|
|-5------5-5-0-1---(1)-1-1---1-1-1-1-|
|------------------------------------|


  Dmadd9
  S  S S S S S S S  S  S S S S S S S
|----------0-----------------0-------|
|----6---6---6---6-----6---6---6---6-|
|-7----7-------7----7----7-------7---|
|------------------------------------|
|------------------------------------|
|------------------------------------|
|
| E.     S S S E   +S  S E   S S S S
|------------------------------------|
|------------------------------------|
|-5------5-5-0-----------------------|
|-3------3-3-0-5---(5)-5-5---5-5-5-5-|
|--------------3---(3)-3-3---3-3-3-3-|
|------------------------------------|


                                                                 To Coda
                                                                 To Coda
  Dm                                   Dmadd9
  S  S S S S S S S  S  S S S S S S S   S  S S S S S S S  S  S S S S S S S
|----------5-----------------5-------|----------0-----------------0-------||
|----6---6---6---6-----6---6---6---6-|----6---6---6---6-----6---6---6---6-||
|-7----7-------7----7----7-------7---|-7----7-------7----7----7-------7---||
|------------------------------------|------------------------------------||
|------------------------------------|------------------------------------||
|------------------------------------|------------------------------------||
|
| E.     S S S E   +E.     S S S S S   E.     S S S E   +S  S E   S S S S
|------------------------------------|------------------------------------||
|------------------------------------|------------------------------------||
|------------------------------------|------------------------------------||
|--------------3---(3)-----3-3-3-3---|------------0-5---(5)-5-5---5-5-5-5-||
|-0------0-0-0-1---(1)-----1-1-1-1-0-|-3------3-3-0-3---(3)-3-3---3-3-3-3-||
|-0------0-0-0---------------------0-|-3------3-3-------------------------||


 2nd Solo
  D5                                                    F5      D5                 F5
                                             ~~~~~~~                   ~~~~~~
   E.        S      +T   +T       +T   +T    E.          E       T  T  E.           +S
|---------------------------------------------------------------------13b15========(13)r\-|
|-13b15-----13b16==(13)r(13)b16==(13)r(13)r-13b15.5-----15b17---11p10---------------------|
|-----------------------------------------------------------------------------------------|
|-----------------------------------------------------------------------------------------|
|-----------------------------------------------------------------------------------------|
|-----------------------------------------------------------------------------------------|
|
|       PM----------------------------------|         PM-------------------------|
|  S    S S  S       T    T        S         S      S S  S    S  S     T     T S S   S
|-----------------------------------------------------------------------------------------|
|-----------------------------------------------------------------------------------------|
|-----------------------------------------------------------------------------------------|
|-----------------------------------------------------------------------------------------|
|--0----0-0--0-------0----0--------0---------0------3-0--0----0--0-----0-----0-0-0---3----|
|--0----0-0--0-------0----0--------0---------0------3-0--0----0--0-----0-----0-0-0---3----|


                                  D.S. al Coda
  D5                   F5D5    G5  D5 DG#G5  GF5
                                    ~~~
  E   E.         T T S S S S S  S   E     E
|-----------------------------------------------||
|-----8b10-------6p5-3-1-3-6-5-[3]-[1]---[1]\---||
|-----------------------------------------------||
|-----------------------------------------------||
|-----------------------------------------------||
|-----------------------------------------------||
|
| PM-----------------|   PM--|      PM
| S S S    S T T S   S S S S S  S   S  S  S   S
|-----------------------------------------------||
|-----------------------------------------------||
|-----------------------------------------------||
|-----------------------------------------------||
|-0-0-0----0-0-0-0---0-3-0-0-0--5---0--6--5---3-||
|-0-0-0----0-0-0-0---0-3-0-0-0--5---0--6--5---3-||


 Bridge
  &
  (Dm)           (C#°)          (F/C)
  Gtr I
                  ~~
   E  S  S  S  S  E  S  S  S  S  S  S  S S
|------------------------------------------|
|------------------------------------------|
|------------------------------------------|
|------------------------------------------|
|-------12-10----------12-10---------------|
|-12-12-------12-11-11-------12-10-10-10-9-|


                      (Bm7b5)
                    ~~~~~~
   S  S  S  S  S  S E +S  S S S S S S S
|---------------------------------------|
|---------------------------------------|
|---------------------------------------|
|---------------------------------------|
|---------------------------------------|
|-10-10-10-10-10h12-9-(9)-9-9-9-9s7-5s7-|


  (Dm)           (C#°)          (F/C)
                  ~~
   E  S  S  S  S  E  S  S  S  S  S  S  S S
|------------------------------------------|
|------------------------------------------|
|------------------------------------------|
|------------------------------------------|
|-------12-10----------12-10---------------|
|-12-12-------12-11-11-------12-10-10-10-9-|


                      (Bm7b5)
                    ~~~~~~
   S  S  S  S  S  S E +S  S S S S S S S
|---------------------------------------|
|---------------------------------------|
|---------------------------------------|
|---------------------------------------|
|---------------------------------------|
|-10-10-10-10-10h12-9-(9)-9-9-9-9s7-5s7-|


  (Dm)           (C#°)          (F/C)
  Gtr III
   W
|------------------------------------------|
|------------------------------------------|
|------------------------------------------|
|------------------------------------------|
|------------------------------------------|
|------------------------------------------|
|
| Gtrs I, II
|                 ~~
|  E  S  S  S  S  E  S  S  S  S  S  S  S S
|------------------------------------------|
|------------------------------------------|
|------------------------------------------|
|------------------------------------------|
|-------12-10----------12-10---------------|
|-12-12-------12-11-11-------12-10-10-10-9-|


                      (Bm7b5)
   H                   Q        E   E
|---------------------------------------|
|---------------------------------------|
|---------------------------------------|
|-----------------------------------5S==|
|---------------------------------------|
|---------------------------------------|
|
|                   ~~~~~~
|  S  S  S  S  S  S E +S  S S S S S S S
|---------------------------------------|
|---------------------------------------|
|---------------------------------------|
|---------------------------------------|
|---------------------------------------|
|-10-10-10-10-10h12-9-(9)-9-9-9-9s7-5s7-|


  (Dm)           (C#°)          (F/C)
   E  S  S  S  S  E  S  S  S  S  S  S  S S
|------------------------------------------|
|------------------------------------------|
|-------14-12----------14-12---------------|
|-12-12-------12-11-11-------12-10-10-10-9-|
|------------------------------------------|
|------------------------------------------|
|
|                 ~~
|  E  S  S  S  S  E  S  S  S  S  S  S  S S
|------------------------------------------|
|------------------------------------------|
|------------------------------------------|
|------------------------------------------|
|-------12-10----------12-10---------------|
|-12-12-------12-11-11-------12-10-10-10-9-|


                      (Bm7b5)
   S  S  S  S  S  S E +S  T T S S S S S S
|------------------------------------------|
|------------------------------------------|
|------------------------------------------|
|-10-10-10-10-10-12-9-(9)-9-9-9-9-9-7-5-7S=|
|------------------------------------------|
|------------------------------------------|
|
|                   ~~~~~~
|  S  S  S  S  S  S E +S  S   S S S S S S
|------------------------------------------|
|------------------------------------------|
|------------------------------------------|
|------------------------------------------|
|------------------------------------------|
|-10-10-10-10-10h12-9-(9)-9---9-9-9s7-5s7--|


  (Dm)           (C#°)          (F/C)
   E  S  S  S  S  E  S  S  S  S  S  S  S S
|------------------------------------------|
|------------------------------------------|
|-------14-12----------14-12---------------|
|-12-12-------12-11-11-------12-10-10-10-9-|
|------------------------------------------|
|------------------------------------------|
|
|                 ~~
|  E  S  S  S  S  E  S  S  S  S  S  S  S S
|------------------------------------------|
|------------------------------------------|
|------------------------------------------|
|------------------------------------------|
|-------12-10----------12-10---------------|
|-12-12-------12-11-11-------12-10-10-10-9-|


                      (Bm7b5)
   S  S  S  S  S  S E +S  T T S S S S S S
|-----------------------------------------||
|-----------------------------------------||
|-----------------------------------------||
|-10-10-10-10-10-12-9-(9)-9-9-9-9-9-7-5-7-||
|-----------------------------------------||
|-----------------------------------------||
|
|                   ~~~~~~
|  S  S  S  S  S  S E +S  S   S S S S S S
|-----------------------------------------||
|-----------------------------------------||
|-----------------------------------------||
|-----------------------------------------||
|-----------------------------------------||
|-10-10-10-10-10h12-9-(9)-9---9-9-9s7-5s7-||


 Piano Chorus
               D.S.S. al Dbl. Coda
  Dm   C#+        F/C  Bm7b5  D5
  Gtr IV
  Q.   E +H       Q.   E +H
|-1-------------|-------------------||
|-3-------------|------3-(3)--------||
|-2----2-(2)----|-2----2-(2)--------||
|-0----3-(3)----|-3----3-(3)--------||
|------4-(4)----|-3----2-(2)--------||
|---------------|-------------------||
|
| Gtrs I, II
|                             PM--|
|                             |-3-|
| W               H       Q   E E E
|---------------|-------------------||
|---------------|-------------------||
|---------------|-------------------||
|---------------|-------------0-0-0-||
|---------------|-------------0-0-0-||
|---------------|-------------0-0-0-||


 Outro
  &&
  D5              F5D5              F5                  F5D5G5D5G#D5
  Gtr II
  e   E   Q         Q       E     S S   e   E   E     S S S S S S Q
|-------------------------------------|-------------------------------||
|-------------------------------------|-------------------------------||
|-------------------------------------|-------------------------------||
|-0---------------------------------3-|-0---------------3---5---6-----||
|-0---------------------------------3-|-0---------------3---5---6-----||
|-0---------------------------------3-|-0---------------3---5---6-----||
|
| Gtr I
|   PM----------|   PM------------|     PM------------|   PM  PM
| S S S S T T S S S S S S S T T S S S   S S S S T T S S S S S S S Q
|-------------------------------------|-------------------------------||
|-------------------------------------|-------------------------------||
|-------------------------------------|-------------------------------||
|-------------------------------------|-------------------------------||
|-0-0-0-0-0-0-0-0-3-0-0-0-0-0-0-0-0-3-|-0-0-0-0-0-0-0-0-3-0-5-0-6-----||
|-0-0-0-0-0-0-0-0-3-0-0-0-0-0-0-0-0-3-|-0-0-0-0-0-0-0-0-3-0-5-0-6-----||
|
| Gtr III
|                                                                 <
| W                                     H                 Q       Q
|-------------------------------------|-------------------------------||
|-------------------------------------|-------------------------------||
|-------------------------------------|-------------------------------||
|-------------------------------------|---------------------------0---||
|-------------------------------------|---------------------------0---||
|-------------------------------------|---------------------------0---||


  D5              F5D5              F5  D5              F5D5    G5D5G#G5F5
  Gtrs I, II
    PM----------|   PM------------|     PM------------|   PM--|   PM
  S S S S T T S S S S S S S T T S S S   S S S S T T S S S S S S S S S S S
|-------------------------------------|-----------------------------------|
|-------------------------------------|-----------------------------------|
|-------------------------------------|-----------------------------------|
|-0-----------------------------------|-----------------------------------|
|-0-0-0-0-0-0-0-0-3-0-0-0-0-0-0-0-0-3-|-0-0-0-0-0-0-0-0-3-0-0-0-5-0-6-5-3-|
|-0-0-0-0-0-0-0-0-3-0-0-0-0-0-0-0-0-3-|-0-0-0-0-0-0-0-0-3-0-0-0-5-0-6-5-3-|


  D5              F5D5              F5  D5              F5  G5  G#N.C.
    PM----------|   PM------------|     PM------------|
  S S S S T T S S S S S S S T T S S S   S S S S T T S S S S S S S Q
|-------------------------------------|-------------------------------*|
|-------------------------------------|-------------------------------*|
|-------------------------------------|-------------------------------*|
|-------------------------------------|-----------------3---5---6-----*|
|-0-0-0-0-0-0-0-0-3-0-0-0-0-0-0-0-0-3-|-0-0-0-0-0-0-0-0-3---5---6-----*|
|-0-0-0-0-0-0-0-0-3-0-0-0-0-0-0-0-0-3-|-0-0-0-0-0-0-0-0-3---5---6-----*|


Duration Legend
---------------
W - whole; H - half; Q - quarter; E - 8th; S - 16th; T - 32nd; X - 64th; a - acciaccatura
+ - note tied to previous; . - note dotted; .. - note double dotted
Uncapitalized letters represent notes that are staccato (1/2 duration)
Irregular groupings are notated above the duration line
Duration letters will always appear directly above the note/fret number it represents the
duration for.  Duration letters with no fret number below them represent rests.  Multi-
bar rests are notated in the form Wxn, where n is the number of bars to rest for.  Low
melody durations appear below the staff

Tablature Legend
----------------
 h   - hammer-on
 p   - pull-off
 b   - bend
 pb  - pre-bend
 r   - bend release (if no number after the r, then release immediately)
 /\  - slide into or out of (from/to "nowhere")
 s   - legato slide
 S   - shift slide
  - natural harmonic
[n]  - artificial harmonic
n(n) - tapped harmonic
 ~   - vibrato
 tr  - trill
 T   - tap
 TP  - trem. picking
 PM  - palm muting
\n/  - tremolo bar dip; n = amount to dip
 \n  - tremolo bar down
 n/  - tremolo bar up
/n\  - tremolo bar inverted dip
 =   - hold bend; also acts as connecting device for hammers/pulls
 <>  - volume swell (louder/softer)
 x   - on rhythm slash represents muted slash
 o   - on rhythm slash represents single note slash

Misc Legend
-----------
 |  - bar
||  - double bar
||o - repeat start
o|| - repeat end
*|  - double bar (ending)
 :  - bar (freetime)
 $  - Segno
 &  - Coda
Tempo markers -  = BPM(8/16=s8/s16), where s8 = swing 8ths, s16 = swing 16ths


***************************************************************************************
* Generated using Power Tab Editor by Brad Larsen - http://powertab.guitarnetwork.org *
***************************************************************************************
Suggest correction
Give kudos to tab author, rate the tab!
1 2 3 4 5
comments
print report bad tab
guest
You may want to rate the tab now too:
select rating
Wanna post a correction for this tab? Suggest correction