Oops, an error
Loading. Please wait.

Exs And Ohs Tab

version 2
version 2

Intro

Whole song

3,196 views 1 this week
4 commentsread comments
1 2 3 4 5
accurate
x 4
add to favorites
launch autoscroll
font size
0
reset
how to read this tab
guitar tuner
Tab Pro tools
  • play this tab
  • loop segment
  • change instrument
  • show fretboard
  • metronome
×
Best way to learn
"Exs And Ohs"
Autoscroll
slow
fast
+/-
esc
set tempo
stop
Contributor
My friend Russell tabbed this for me, so all credit goes to him.
This is my first time making a tab format, hope you people can understand it!!

PLEASE RATE

Key:
^ Bend
/ Slide
p Palm Mute
h Hammer On
P Pull Off

e]---------------------------------------------------------|
B]---/3-5-6-6-3-------5-------6-------5-------5-5h6P5-3----|
G]--------------5p-5p---5p-5p---5p-5p---5p-5p-----------6--|
D]---------------------------------------------------------|
A]---------------------------------------------------------|
E]---------------------------------------------------------|

e]---------------------------------------------------------|
B]-3-3-5-/8-6-5-6-8-10^------------------------------------|
G]---------------------------------------------------------|
D]---------------------------------------------------------|
A]---------------------------------------------------------|
E]---------------------------------------------------------|

e]---------------------------------------------------------|
B]---/3-5-6-6-3-------5-------6-------5-------5-5h6P5-3----|
G]--------------5p-5p---5p-5p---5p-5p---5p-5p-----------6--|
D]---------------------------------------------------------|
A]---------------------------------------------------------|
E]---------------------------------------------------------|

e]---------------------------------------------------------|
B]-3-3-5-/8-6-5-6-8-10^------------------------------------|
G]---------------------------------------------------------|
D]---------------------------------------------------------|
A]---------------------------------------------------------|
E]---------------------------------------------------------|

e]---------------------------------------------------------|
B]-3-3-5-/8-8-/10-/6-5555-6-8-11^--------------------------|
G]---------------------------------------------------------|
D]---------------------------------------------------------|
A]---------------------------------------------------------|
E]---------------------------------------------------------|
comments
print report bad tab
4 comments total. Showing first comments.
0 reply
RenagadeFaction wrote on June 9 2006, 03:24 pm

Um.... nice try

0 reply
rcw110131 wrote on June 9 2006, 03:39 pm

wrong tuning, inaccurate, etc.....

0 reply
ph3n0m wrote on June 9 2006, 08:03 pm

uh, what do you mean by "5p"?

I want to post or [tab]
guest
You may want to rate the tab now too:
select rating
Please do not post tabs as comments. Select "correction" instead!