Oops, an error
Loading. Please wait.

Exs And Ohs Tab

version 1
version 1

Whole song

5,841 views 6 this week
2 commentsread comments
1 2 3 4 5
please rate
add to favorites
launch autoscroll
font size
0
reset
how to read this tab
guitar tuner
Tab Pro tools
  • play this tab
  • loop segment
  • change instrument
  • show fretboard
  • metronome
×
Best way to learn
"Exs And Ohs"
Autoscroll
slow
fast
+/-
esc
set tempo
stop
Contributor
Difficulty
intermediate
this is dan's solo i don't know the other one

D---+12-5-7-8-+12-8-7-5------------------------------------------------|
A-----------------------+12-8-7-5-7-8-+10-8-7-5------------------------|
F-----------------------------------------------+9-5-7-+9-7-5----------|
C-------------------------------------------------------------+9-7-5---|
G--------------------------------------------------------------------7-|
C----------------------------------------------------------------------|
   (finger tapping)

D----------|-----------------------------------------------------------|
A----------|-----------------------------------------------------------|
F----------|--------------------------12*--------11--------9*----------|
C----------|-------------10-9----------------------------------------9-|
G-9-7-5-0--|---------^7--------^7-^7-----------------------------------|
C----------|-----------------------------------------------------------|
         (palm mute): ^    let ring:*


D--------------------12-15-12----12-17-12----12-15-12----12--17-12---|
A-----------------15----------15----------15----------15----------15-|
F--------------------------------------------------------------------|
C-10*(pitch)---------------------------------------------------------|
G--------------------------------------------------------------------|
C--------------------------------------------------------------------|


D-12-12--17---17------------------------------------|
A--------------------16*-------------19*------17*---|
F---------------------------------------------------|
C---------------------------------------------------|
G---------------------------------------------------|
C---------------------------------------------------|

D-10-8-7--------10-8-7--------10-8-7-12--(12-------------|whammy bar
A--------10-8-7--------10-8-7--------15--(15)------------|
F--------------------------------------------------------|
C--------------------------------------------------------|
G--------------------------------------------------------|
C--------------------------------------------------------|
comments
We did not receive enough feedback on this tab! Please rate:
print report bad tab
1 2 3 4 5
2 comments total.
0 reply
Mikey-H wrote on June 20 2006, 05:26 am

good try tho

0 reply
blacksg wrote on June 20 2006, 11:45 am

yeah good try but....no theres already a better one so i would suggest not even trying this song but other songs, and there's 3 songs with solos on them so have fun

I want to post or [tab]
guest
You may want to rate the tab now too:
select rating
Please do not post tabs as comments. Select "correction" instead!