Oops, an error
Loading. Please wait.

Exs And Ohs Tab

version 2
version 2

Whole song

7,593 views 3 this week
4 commentsread comments
1 2 3 4 5
x 6
add to favorites
launch autoscroll
font size
0
reset
how to read this tab
guitar tuner
Autoscroll
slow
fast
+/-
esc
set tempo
stop
Help us to improve Ultimate-Guitar.com Take our survey!
×
Author
-------------------------------------------------------------------------------
                             Ex's And Oh's - ATREYU
-------------------------------------------------------------------------------

Tabbed by: Mikey-H                              
Email: retarded_elephaaaant69[@]hotmail.com

Tuning:

This is the whole solo for the song.

D|--7------12b-------------------------------------------------------------|
A|----7----15b--15\12---12v----12-13-17-0-15-0-13-0-12-0-13-0-12-0---------|
F|------5------------------------------------------------------------------|
C|-------------------------------------------------------------------------|
G|-------------------------------------------------------------------------|
C|-------------------------------------------------------------------------|
    + + +               

D|----------------------------------------------7-10--12--------11--------11--|
A|------------------------8-----------8-10-10-8-----------14b-------14b-------|
F|--------7-9-7---7-9-7-9---9-7-9-7-9-----------------------------------------|
C|--9-7-9-------9-------------------------------------------------------------|
G|----------------------------------------------------------------------------|
C|----------------------------------------------------------------------------|

D|--12--------11--------11-------------------------------------------------|
A|------14b-------14b-------15b--17--15------------------------------------|
F|---------------------------------------16--------------------------------|
C|-------------------------------------------------------------------------|
G|-------------------------------------------------------------------------|
C|-------------------------------------------------------------------------|

D|--12----------12---------------------------------------------------------|
A|-----12-13-15----12------------------------------------------------------|
F|--------------------14-12-14-12-11-9-11-12-14-12-11-9-------9-11-9-9-----|
C|------------------------------------------------------12-10--------------|
G|-------------------------------------------------------------------------|
C|-------------------------------------------------------------------------|

D|-------------------------------------------------------------------------|
A|-----------------------------------20--19--17----------------------------|
F|-------------------x-x-x-17-16-x-x-------------16--17--------------------|
C|-12-10-9-----------x-----------------------------------------------------|
G|---------12-10-9-7-x-----------------------------------------------------|
C|-------------------------------------------------------------------------|

D|--------15----------17----------15----------17----------17-19-21---------|
A|-----17----17----17----17----17----17----17----17----17------------------|
F|--17----------17----------17----------17----------17---------------------|
C|-------------------------------------------------------------------------|
G|-------------------------------------------------------------------------|
C|-------------------------------------------------------------------------|

D|--21-/-----------------------------------------------------------12------|
A|-----/20-20-21-----15-13-12-----------------15-13-12---------------------|
F|---------------21-----------14-12--11-12-11------------------------------|
C|-------------------------------------------------------------------------|
G|-------------------------------------------------------------------------|
C|-------------------------------------------------------------------------|
    ^^theres a long slide here


D|----------------12-12-12\3-----------------------------------------------|
A|----------------14-14-14\5-----------------------------------------------|
F|---14-12-11-11-----------------------------------------------------------|
C|-------------------------------------------------------------------------|
G|-------------------------------------------------------------------------|
C|-------------------------------------------------------------------------|


| /  slide up
| \  slide down
| b  bend
| h  hammer-on
| p  pull-off
| ~  vibrato
| +  harmonic
| x  Mute note
===============================================================================
Bec is R8 Sik
===============================================================================

Suggest correction
comments
print report bad tab
4 comments total. Showing first comments.
0 reply
tfk011 22 Jul 03, 2006 10:18 AM

tab sounds alright but thats not how atreyu plays it.

0 reply
cortSP-3 56 Jul 03, 2006 02:45 PM

this solo is already tabbed out quit making more

0 reply
passtheapathy 257 Jul 03, 2006 06:29 PM

First three notes are natural harmonics, make sure to put that in.

guest
You may want to rate the tab now too:
select rating
Wanna post a correction for this tab? Suggest correction