Oops, an error
Loading. Please wait.

Exs And Ohs Tab

version 1
version 1

Whole song

34,727 views 63 this week
5 commentsread comments
1 2 3 4 5
worth learning
x 10
add to favorites
launch autoscroll
font size
0
reset
how to read this tab
guitar tuner
Autoscroll
slow
fast
+/-
esc
set tempo
stop
Help us to improve Ultimate-Guitar.com Take our survey!
×
Author
Difficulty
Tuning
intermediate
C G C F A D
ATREYU
EX's AND OH's
A DEATHGRIP ON YESTERDAY
2006

DROP c TUNING


~  BEND/HOLD NOTE
*  PALM MUTE
5* HARMONIC
h  HAMMER ON
p  PULL OFF

INTRO
---------------------------------------------------------------------|
---------------------------------------------------------------------|
---9-11-12~----9-11-12-11-11h12p11-------9-11-14-12~---9-11-14-16~---|
--------------------------------12-14--------------------------------|
---------------------------------------------------------------------|
---------------------------------------------------------------------|

---------------------------------------------------------------------|
---------------------------------------------------------------------|
---9-11-12~----9-11-12-11-11h12p11-------9-11-14-12~---9-11-14-16~---|
--------------------------------12-14--------------------------------|
---------------------------------------------------------------------|
---------------------------------------------------------------------|


VERSE 1
---------------------------------------------------------------------|
---------------------------------------------------------------------|
---------------------------------------------------------------------|
-----------2~--------------------------------0~----------------------|
---8-7-5-3-2~------------------------2-2-2-0-0~----------------------|
---8-7-5-3-2~------------------------2-2-2-0-0~----------------------|
   * * * *                           * * * *

---------------------------------------------------------------------|
---------------------------------------------------------------------|
---16-16-11-11-12-12-9-9-9-9-----------------------------------------|
----x--x-x--x---x--x-x-x-x-x-----------------------------------------|
---14-14-9--9--10-10-7-7-7-7-----------------------------------------|
---------------------------------------------------------------------|


CHORUS 1
---------------------------------------------------------------------|
---------------------------------------------------------------------|
---9-11-12~----9-11-12-11-11h12p11-------9-11-14-12~---9-11-14-16~---|
--------------------------------12-14--------------------------------|
---------------------------------------------------------------------|
---------------------------------------------------------------------|

---------------------------------------------------------------------|
---------------------------------------------------------------------|
---9-11-12~----9-11-12-11-11h12p11-------9-11-14-12~---9-11-14-16~---|
--------------------------------12-14--------------------------------|
---------------------------------------------------------------------|
---------------------------------------------------------------------|

---------------------------------------------------------------------|
---------------------------------------------------------------------|
---9-11-12~----9-11-12-11-11h12p11-------9-11-14-12~---9-11-14-16~---|
--------------------------------12-14--------------------------------|
---------------------------------------------------------------------|
---------------------------------------------------------------------|

---------------------------------------------------------------------|
---------------------------------------------------------------------|
---9-11-12~----9-11-12-11-11h12p11-------9-11-14-12~---9-11-14-16~---|
--------------------------------12-14--------------------------------|
---------------------------------------------------------------------|
---------------------------------------------------------------------|

VERSE 2
---------------------------------------------------------------------|
---------------------------------------------------------------------|
---------------------------------------------------------5555555-----|
-----------2~--------------------------------0~----------xxxxxxx-----|
---8-7-5-3-2~------------------------2-2-2-0-0~----------3333333-----|
---8-7-5-3-2~------------------------2-2-2-0-0~-------00-------------|
   * * * *                           * * * *          **

---------------------------------------------------------------------|
---------------------------------------------------------------------|
--------------------------------------------------99999999-----------|
---5-5-----------5-5-5-----------5-5-5------------xxxxxxxx-----------|
---5-5-----------5-5-5-----------5-5-5------------77777777-----------|
---5-5-222222222-5-5-5-222222222-5-5-5-0000000000--------------------|
       *********       *********       **********


CHORUS 2 (NOT PERFECT BUT DOES THE JOB)
---------------------------------------------------------------------|
---------------------------------------------------------------------|
---99999999-1212121212121212-99999999-1616161616161616---------------|
---xxxxxxxx--x-x-x-x-x-x-x-x-xxxxxxxx--x-x-x-x-x-x-x-x---------------|
---77777777-1010101010101010-77777777-1414141414141414---------------|
---------------------------------------------------------------------|

---------------------------------------------------------------------|
---------------------------------------------------------------------|
---99999999-1212121212121212-99999999--------------------------------|
---xxxxxxxx--x-x-x-x-x-x-x-x-xxxxxxxx--------------------------------|
---77777777-1010101010101010-77777777--1-1-1-1-2-2-2-2-1-1-1-1-2-----|
---------------------------------------1-1-1-1-2-2-2-2-1-1-1-1-2-----|
                                       *   *   *   *   *   *

---------------------------------------------------------------------|
---------------------------------------------------------------------|
---99999999-1212121212121212-99999999-1616161616161616---------------|
---xxxxxxxx--x-x-x-x-x-x-x-x-xxxxxxxx--x-x-x-x-x-x-x-x---------------|
---77777777-1010101010101010-77777777-1414141414141414---------------|
---------------------------------------------------------------------|

---------------------------------------------------------------------|
------------------------------------------------------------------5*-|
---99999999-1212121212121212-99999999-----------------------------5*-|
---xxxxxxxx--x-x-x-x-x-x-x-x-xxxxxxxx-----------------------------5*-|
---77777777-1010101010101010-77777777--1-1-1-1-2-2-2-2-1-1-1-1-2-----|
---------------------------------------1-1-1-1-2-2-2-2-1-1-1-1-2-----|
                                       *   *   *   *   *   *


SOLO (HAVENT FIGURED ANY OF IT OUT SO HERES THE RYTHYM)
---------------------------------------------------------------------|
---------------------------------------------------------------------|
---------------------------------------------------------------------|
---------------------------------------------------------------------|
---10-10-10-10-10-10-10-10--2-2-2-2-2-2-2-2--10-10-10-10-10-10-10-10-|
---10-10-10-10-10-10-10-10--2-2-2-2-2-2-2-2--10-10-10-10-10-10-10-10-|


-------------------|
-------------------|
-------------------|
-------------------|
---1-1-1-1-2-2-2-2-|
---1-1-1-1-2-2-2-2-|
     *   *   *   *

---------------------------------------------------------------------|
---------------------------------------------------------------------|
---------------------------------------------------------------------|
---------------------------------------------------------------------|
---10-10-10-10-10-10-10-10--2-2-2-2-2-2-2-2--10-10-10-10-10-10-10-10-|
---10-10-10-10-10-10-10-10--2-2-2-2-2-2-2-2--10-10-10-10-10-10-10-10-|


------------------------------|
------------------------------|
------------------------------|
------------------------------|
---1-1-1-1-2-2-2-2-1-1-1-1-2~-|
---1-1-1-1-2-2-2-2-1-1-1-1-2~-|
     *   *   *   *   *   *


BREAKDOWN (INTRO RIFF PLAYED OVER TOP)
---------------------------------------------------------------------|
---------------------------------------------------------------------|
---------------------------------------------------------------------|
---------------------------------------------------------------------|
---2~----------------------------------------------------------------|
---2~----------------------------------------------------------------|

---------------------------------------------------------------------|
---------------------------------------------------------------------|
---------------------------------------------------------------------|
---------------------------------5-5-5-5-5-5-555---------------------|
---2-2-2-2-2-222--0-0-0-0-0-000--3-3-3-3-3-3-333-2~------------------|
---2-2-2-2-2-222--0-0-0-0-0-000------------------2~------------------|


CHORUS 3
---------------------------------------------------------------------|
---------------------------------------------------------------------|
---9-11-12~----9-11-12-11-11h12p11-------9-11-14-12~---9-11-14-16~---|
--------------------------------12-14--------------------------------|
---------------------------------------------------------------------|
---------------------------------------------------------------------|

---------------------------------------------------------------------|
---------------------------------------------------------------------|
---9-11-12~----9-11-12-11-11h12p11-------9-11-14-12~---9-11-14-16~---|
--------------------------------12-14--------------------------------|
---------------------------------------------------------------------|
---------------------------------------------------------------------|

---------------------------------------------------------------------|
---------------------------------------------------------------------|
---9-11-12~----9-11-12-11-11h12p11-------9-11-14-12~---9-11-14-16~---|
--------------------------------12-14--------------------------------|
---------------------------------------------------------------------|
---------------------------------------------------------------------|

---------------------------------------------------------------------|
---------------------------------------------------------------------|
---9-11-12~----9-11-12-11-11h12p11-------9-11-14-12~---9-11-14-16~---|
--------------------------------12-14--------------------------------|
---------------------------------------------------------------------|
---------------------------------------------------------------------|

---------------------------------------------------------------------|
---------------------------------------------------------------------|
---------------------------------------------------------------------|
---------------------------------------------------------------------|
----------2~---------------------------------------------------------|
---7-5-3--2~---------------------------------------------------------|
Suggest correction
What's this?
You can suggest a correction to this tab. Community and Mods will review your correction and vote to approve or reject it.
comments
print report bad tab
5 comments total. Showing first comments.
0 reply
Corpse_Sledding 43 wrote on April 3 2006, 06:03 pm

It seems like you are frequently switching between lead and rhythm here. I know that it's hard to hear both at some times, but please try to fix this tab and get both parts.

0 reply
INNOCENT VICTIM 629 wrote on April 3 2006, 09:19 pm

This is not the whole song because there is no solo

+1 reply
Atticus-Black- 52 wrote on June 28 2006, 09:20 pm

crap

guest
You may want to rate the tab now too:
select rating
Please do not post tabs as comments. Select "correction" instead!