Oops, an error
Loading. Please wait.

Exs And Ohs Bass Tab

version 2
version 2

Whole song

4,867 views 6 this week
4 commentsread comments
1 2 3 4 5
excellent!
x 4
add to favorites
launch autoscroll
font size
0
reset
guitar tuner
Autoscroll
slow
fast
+/-
esc
set tempo
stop
Help us to improve Ultimate-Guitar.com Take our survey!
×
Contributor
Difficulty
Tuning
Rhythman 811
novice
C G C F A D
#----------------------------------PLEASE NOTE---------------------------------#
#This file is the author's own work and represents their interpretation of the #
#song. You may only use this file for private study, scholarship, or research. #
#------------------------------------------------------------------------------##

                            EX'S AND OH'S (Bassline)
                              As recorded by Atreyu
                 (From the 2006 Album A DEATH GRIP ON YESTERDAY)

Words and Music by Atreyu
Arranged by Atreyu
Transcribed by rhythmansane@gmail.com

Gtr I (C G C F) - 'Mark McKnight'

   Intro
    Moderately Fast Q=160
   4/4
    Gtr I
    E E E E E E E E   E E E E E E E E   E E E E E E E E   E E E E E E E E
||------------------|-----------------|-----------------|------------------|
||o-----------------|-----------------|-----------------|------------------|
||o-----------------|-----------------|-----------------|------------------|
||--2-2-2-2-2-2-2-2-|-2-2-2-2-2-2-2-2-|-0-0-0-0-0-0-0-0-|-0-0-0-0-0-0-0-0--|


  1.
  E E E E E E E E   E E E E E E E E   E E E E E E E E   E E E E E E Q
|-----------------|-----------------|-----------------|-----------------||
|-----------------|-----------------|-----------------|----------------o||
|-3-3-3-3-3-3-3-3-|-3-3-3-3-3-3-3-3-|-2-2-2-2-2-2-2-2-|-2-2-2-2-2-2-2--o||
|-----------------|-----------------|-----------------|-----------------||


  2.
  E E E E E E E E   E E E E E E E E   E E E E E E E E   E E E E +Q   Q
|-----------------|-----------------|-----------------|-----------------||
|-----------------|-----------------|-----------------|-----------------||
|-3-3-3-3-3-3-3-3-|-3-3-3-3-3-3-3-3-|-2-2-2-2-2-2-2-2-|-2-2-2-2-(2)-----||
|-----------------|-----------------|-----------------|-----------------||


 1st Verse
  E E E E E E E E   E E E E E E E E   E E E E E E E E   E E E E E E E E
|-----------------|-----------------|-----------------|-----------------|
|-----------------|-----------------|-----------------|-----------------|
|-----------------|-----------------|-----------------|-----------------|
|-2-2---2-2-2---2-|-2-2---2-2-2---2-|-0-0---2-2-2---2-|-2-2---2-5-5---5-|


  E E E E E E E E   E E E E E E E E   E E E E E E E E   E E E E E E E E
|-----------------|-----------------|-----------------|-----------------|
|-----------------|-----------------|-----------------|-----------------|
|-----------------|-----------------|-3-3-3-3-3-3-3-3-|-3-3-3-3-2-2-2-2-|
|-0-0---0-0-0---0-|-0-0---0-0-0---0-|-----------------|-----------------|


  E E E E E E E E   E E E E E E E E   E E E E E E E E   E E E E E E E E
|-----------------|-----------------|-----------------|-----------------|
|-----------------|-----------------|-----------------|-----------------|
|-----------------|-----------------|-----------------|-----------------|
|-2-2---2-2-2---2-|-2-2---2-2-2---2-|-2-2---2-2-2---2-|-2-2---2-5-5---5-|


  E E E E E E E E   E E E E E E E E   E E E E E E E E   E E E E E E E E
|-----------------|-----------------|-----------------|-----------------||
|-----------------|-----------------|-----------------|-----------------||
|-----------------|-----------------|-3-3-3-3-3-3-3-3-|-3-3-3-3-3-3-3-3-||
|-0-0---0-0-0---0-|-0-0---0-0-0---0-|-----------------|-----------------||


   Chorus
    E E E E E E E E   E E E E E E E E   E E E E E E E E   E E E E E E E E
||------------------|-----------------|-----------------|------------------|
||o-----------------|-----------------|-----------------|------------------|
||o-----------------|-----------------|-----------------|------------------|
||--2-2-2-2-2-2-2-2-|-2-2-2-2-2-2-2-2-|-0-0-0-0-0-0-0-0-|-0-0-0-0-0-0-0-0--|


  1.
  E E E E E E E E   E E E E E E E E   E E E E E E E E   E E E E E E Q
|-----------------|-----------------|-----------------|-----------------||
|-----------------|-----------------|-----------------|----------------o||
|-3-3-3-3-3-3-3-3-|-3-3-3-3-3-3-3-3-|-2-2-2-2-2-2-2-2-|-2-2-2-2-2-2-2--o||
|-----------------|-----------------|-----------------|-----------------||


  2.
  E E E E E E E E   E E E E E E E E   E E E E E E E E   E E E E +Q   Q
|-----------------|-----------------|-----------------|-----------------||
|-----------------|-----------------|-----------------|-----------------||
|-3-3-3-3-3-3-3-3-|-3-3-3-3-3-3-3-3-|-2-2-2-2-2-2-2-2-|-2-2-2-2-(2)-----||
|-----------------|-----------------|-----------------|-----------------||


 2nd Verse
  E E E E E E E E   E E E E E E E E   E E E E E E E E   E E E E E E E E
|-----------------|-----------------|-----------------|-----------------|
|-----------------|-----------------|-----------------|-----------------|
|-----------------|-----------------|-----------------|-----------------|
|-2-2---2-2-2---2-|-2-2---2-2-2---2-|-0-0---2-2-2---2-|-2-2---2-5-5---5-|


  E E E E E E E E   E E E E E E E E   E E E E E E E E   E E E E E E E E
|-----------------|-----------------|-----------------|-----------------|
|-----------------|-----------------|-----------------|-----------------|
|-----------------|-----------------|-3-3-3-3-3-3-3-3-|-3-3-3-3-5-3-2---|
|-0-0---0-0-0---0-|-0-0---0-0-0-0-0-|-----------------|---------------5-|


  +E  E E E E E E E   E E E E E E E E   +E  E E E E E E E   E E E E E E E E
|-------------------|-----------------|-------------------|-----------------|
|-------------------|-----------------|-------------------|-----------------|
|-------------------|-----------------|-------------------|-----------------|
|-(5)-2-2-2-2-2-2-2-|-2-2-2-2-2-5---5-|-(5)-2-2-2-2-2-2-2-|-2-2-2-2-2-4-2-0-|


  +E  E E E E E E E   E E E E E E E E   E E E E E E E E   E E E E E E E E
|-------------------|-----------------|-----------------|-----------------||
|-------------------|-----------------|-----------------|-----------------||
|-------------------|---------------0-|-3-3-3-3-3-3-3-3-|-3-3-3-3-3-3-3-3-||
|-(0)-0-0-0-0-0-0-0-|-0-0-0-0-0-0-0---|-----------------|-----------------||


   Bridge
    E E E E E E E E   E E E E E E E E   E E E E E E E E   E E E E E E E E
||------------------|-----------------|-----------------|------------------|
||o-----------------|-----------------|-----------------|------------------|
||o-3-3-3-3-3-3-3-3-|-2-2-2-2-2-2-2---|-----------------|---------------0--|
||------------------|---------------0-|-2-2-2-2-2-2-2-4-|-5-5-5-5-5-5-5----|


  1.
  E E E E E E E E   E E E E E E E E
|-----------------|-----------------|
|-----------------|-----------------|
|-3-3-3-3-3-3-3-3-|-2-2-2-2-3-3-3---|
|-----------------|---------------1-|


  +E  E E E +E  E E E   +E  E E E +E  E E E
|---------------------|----------------------||
|---------------------|---------------------o||
|---------------------|---------------------o||
|-(1)-1---1-(1)-1---2-|-(2)-2---2-(2)-2-0-0--||


  2.
  E E E E E E E E   E E E E E E E E
|-----------------|-----------------|
|-----------------|-----------------|
|-3-3-3-3-3-3-3-3-|-2-2-2-2-3-3-3---|
|-----------------|---------------1-|


  +E  E E E +E  E E E   +E  E E E +E  E E E
|---------------------|---------------------|
|---------------------|---------------------|
|---------------------|---------------------|
|-(1)-1---1-(1)-1---2-|-(2)-2---2-(2)-2---1-|


                                   1st Guitar Solo
  +E  E E E +E  E E E   W           E E E E E E E E   E E E E E E E E
|---------------------|----------||-----------------|-----------------|
|---------------------|----------||-----------------|-----------------|
|---------------------|----------||-3-3-3-3-3-3-3-3-|-3-3-3-3-3-3-3-3-|
|-(1)-1---1-(1)-1---2-|----------||-----------------|-----------------|


  E E E E E E E E   E E E E E E E E   E E E E E E E E
|-----------------|-----------------|-----------------|
|-----------------|-----------------|-----------------|
|-----------------|-----------------|-3-3-3-3-3-3-3-3-|
|-2-2-2-2-2-2-2-2-|-2-2-2-2-2-2-2-2-|-----------------|


  E E E E E E E E   +E  E E E +E  E E E   +E  E E E +E  E E E
|-----------------|---------------------|---------------------||
|-----------------|---------------------|---------------------||
|-3-3-3-3-3-3-3---|---------------------|---------------------||
|---------------1-|-(1)-1---1-(1)-1---2-|-(2)-2---2-(2)-2-2-0-||


 2nd Guitar Solo
  E E E E E E E E   E E E E E E E E   E E E E E E E E
|-----------------|-----------------|-----------------|
|-----------------|-----------------|-----------------|
|-3-3-3-3-3-3-3-3-|-3-3-3-3-3-3-3-3-|-----------------|
|-----------------|-----------------|-2-2-2-2-2-2-2-2-|


  E E E E E E E E   E E E E E E E E   E E E E E E E E
|-----------------|-----------------|-----------------|
|-----------------|-----------------|-----------------|
|-----------------|-3-3-3-3-3-3-3-3-|-3-3-3-3-3-3-3---|
|-2-2-2-2-2-2-2-2-|-----------------|---------------1-|


  +E  E E E +E  E E E   +E  E E E +E  E E E   +E  E E E +E  E E E   W
|---------------------|---------------------|---------------------|------||
|---------------------|---------------------|---------------------|------||
|---------------------|---------------------|---------------------|------||
|-(1)-1---1-(1)-1---2-|-(2)-2---2-(2)-2---1-|-(1)-1---1-(1)-1---2-|------||


 Interlude
  W          +W           +W           +W
|----------|------------|------------|--------|
|----------|------------|------------|--------|
|----------|------------|------------|--------|
|-2--------|-(2)--------|-(2)--------|-(2)----|


  +W           +W           +W           +W
|------------|------------|------------|--------|
|------------|------------|------------|--------|
|------------|------------|------------|--------|
|-(2)--------|-(2)--------|-(2)--------|-(2)----|


  E E E E E E E E   E E E E E E E E   E E E E E E E E   E E E E E E E E
|-----------------|-----------------|-----------------|-----------------|
|-----------------|-----------------|-----------------|-----------------|
|-----------------|-----------------|-----------------|-----------------|
|-2-2-2-2-2-2-2-2-|-2-2-2-2-2-2-2-2-|-2-0-0-0-0-0-0-0-|-0-0-0-0-0-0-0-0-|


  E E E E E E E E   E E E E E E E E   W          +W
|-----------------|-----------------|----------|--------||
|-----------------|-----------------|----------|--------||
|-3-3-3-3-3-3-3-3-|-3-3-3-3-3-3-3-3-|-2--------|-(2)----||
|-----------------|-----------------|----------|--------||


   2nd Chorus
    E E E E E E E E   E E E E E E E E   E E E E E E E E   E E E E E E E E
||------------------|-----------------|-----------------|------------------|
||o-----------------|-----------------|-----------------|------------------|
||o-----------------|-----------------|-----------------|------------------|
||--2-2-2-2-2-2-2-2-|-2-2-2-2-2-2-2-2-|-0-0-0-0-0-0-0-0-|-0-0-0-0-0-0-0-0--|


  1.
  E E E E E E E E   E E E E E E E E   E E E E E E E E   E E E E E E Q
|-----------------|-----------------|-----------------|-----------------||
|-----------------|-----------------|-----------------|----------------o||
|-3-3-3-3-3-3-3-3-|-3-3-3-3-3-3-3-3-|-2-2-2-2-2-2-2-2-|-2-2-2-2-2-2-2--o||
|-----------------|-----------------|-----------------|-----------------||


  2.
  E E E E E E E E   E E E E E E E E   E E E E E E E E   E E E E +Q   Q
|-----------------|-----------------|-----------------|-----------------||
|-----------------|-----------------|-----------------|-----------------||
|-3-3-3-3-3-3-3-3-|-3-3-3-3-3-3-3-3-|-2-2-2-2-2-2-2-2-|-2-2-2-2-(2)-----||
|-----------------|-----------------|-----------------|-----------------||


  W          +W           +W           +W
|----------|------------|------------|--------*|
|----------|------------|------------|--------*|
|----------|------------|------------|--------*|
|-2--------|-(2)--------|-(2)--------|-(2)----*|


Duration Legend
---------------
W - whole; H - half; Q - quarter; E - 8th; S - 16th; T - 32nd; X - 64th; a - acciaccatura
+ - note tied to previous; . - note dotted; .. - note double dotted
Uncapitalized letters represent notes that are staccato (1/2 duration)
Irregular groupings are notated above the duration line
Duration letters will always appear directly above the note/fret number it represents the
duration for.  Duration letters with no fret number below them represent rests.  Multi-
bar rests are notated in the form Wxn, where n is the number of bars to rest for.  Low
melody durations appear below the staff

Tablature Legend
----------------
 h   - hammer-on
 p   - pull-off
 b   - bend
 pb  - pre-bend
 r   - bend release (if no number after the r, then release immediately)
 /\  - slide into or out of (from/to "nowhere")
 s   - legato slide
 S   - shift slide
  - natural harmonic
[n]  - artificial harmonic
n(n) - tapped harmonic
 ~   - vibrato
 tr  - trill
 T   - tap
 TP  - trem. picking
 PM  - palm muting
\n/  - tremolo bar dip; n = amount to dip
 \n  - tremolo bar down
 n/  - tremolo bar up
/n\  - tremolo bar inverted dip
 =   - hold bend; also acts as connecting device for hammers/pulls
 <>  - volume swell (louder/softer)
 x   - on rhythm slash represents muted slash
 o   - on rhythm slash represents single note slash

Misc Legend
-----------
 |  - bar
||  - double bar
||o - repeat start
o|| - repeat end
*|  - double bar (ending)
 :  - bar (freetime)
 $  - Segno
 &  - Coda
Tempo markers -  = BPM(8/16=s8/s16), where s8 = swing 8ths, s16 = swing 16ths


***************************************************************************************
* Generated using Power Tab Editor by Brad Larsen - http://powertab.guitarnetwork.org *
***************************************************************************************
comments
print report bad tab
4 comments total. Showing first comments.
0 reply
crfowler_09 561 wrote on May 12 2006, 03:41 pm

beautiful.

i commend u, making a hardcore band look easy.

0 reply
Rhythman 811 wrote on May 12 2006, 11:35 pm

thanks!

0 reply
SilversteinFan0 42 wrote on September 14 2007, 03:40 pm

nice tabb

I want to post or [tab]
guest
You may want to rate the tab now too:
select rating
Please do not post tabs as comments. Select "correction" instead!