Oops, an error
Loading. Please wait.

Exs And Ohs Tab

version 2
version 2

Whole song

86,010 views 24 this week
37 commentsread comments
1 2 3 4 5
x 35
add to favorites
launch autoscroll
font size
0
reset
how to read this tab
guitar tuner
Autoscroll
slow
fast
+/-
esc
set tempo
stop
Help us to improve Ultimate-Guitar.com Take our survey!
×
Author
Tuning
C G C F A D
Gtr 1 (C G C F A D) - 'Untitled'
Gtr 2 (C G C F A D) - 'Untitled'
Gtr 3 (C G C F A D) - 'Untitled'
Gtr 4 (C G C F A D) - 'Untitled'

[Intro]
(Moderately Fast Q=160)
4/4
(Gtr 3)
                            ~~~
     Q.    E +E  E +Q      +H.          +Q
D|-----------------------|---------------------|
A|o-/5-----7-(7)-8-(8)---|-(8)----------(8)\---|
F|-----------------------|---------------------|
C|-----------------------|---------------------|
G|o----------------------|---------------------|
C|-----------------------|---------------------|

 [Gtrs 1, 2]
     Q   Q    E  E  E  E   +E  E Q  E E  E   E
D|-----------------------|---------------------|
A|o----------------------|---------------------|
F|-----------------------|---------------------|
C|-----------------------|---------------------|
G|o--2---2----2--2--2--2-|-(2)-2-2--2-2--2---0-|
C|---2---2----2--2--2--2-|-(2)-2-2--2-2--2---0-|

      PM|   PM|   PM--|   PM|
    E E E E E E E E   E E E E E S S E  E
D|------------------|--------------------|
A|-/5-----7-----8---|---7-----7h8p7s5----|
F|----7-7---7-7---7-|-7---7-7----------7-|
C|------------------|--------------------|
G|------------------|--------------------|
C|------------------|--------------------|

     PM|   PM|   PM--|   PM|
   E E E E E E E E   E E E E E E   Q
D|------------------|--------------------|
A|------------------|--------------------|
F|------------------|--------------------|
C|--7-----7-----7---|---7-----7-7---7\---|
G|--5-----5-----5---|---5-----5-5---5\---|
C|----0-0---0-0---0-|-0---0-0------------|

   1.
                  ~
   Q.    E +E   E Q     +H        +Q    Q
D|--------------------|---------------------|
A|-5-----7-(7)s10-8---|-(8)-------(8)s==1S==|
F|--------------------|---------------------|
C|--------------------|---------------------|
G|--------------------|---------------------|
C|--------------------|---------------------|

  Q   Q    E   E E E    E  E E E  E  E E E
D|--------------------|---------------------|
A|--------------------|---------------------|
F|--------------------|---------------------|
C|-5---5----5---5-5-5-|--5--5-5-5--5--5-5-5-|
G|-3---3----3---3-3-3-|--3--3-3-3--3--3-3-3-|
C|--------------------|---------------------|

                               ~~~~
   Q.    E +E   Q    E        +H        +E   +E      +Q
D|-------------------------|---------------------------------|
A|-7-----8-(8)-10---10b12==|=(10)------(10)r(10)b12-(10)\---o|
F|-------------------------|---------------------------------|
C|-------------------------|---------------------------------|
G|-------------------------|--------------------------------o|
C|-------------------------|---------------------------------|

  Q   E E  E   E E  E        +E  E Q    E    E       E   E
D|-------------------------|---------------------------------|
A|-------------------------|--------------------------------o|
F|-------------------------|---------------------------------|
C|-5---5-5--5---5-5--5-----|--(5)-5-5----5----5-------5------|
G|-2---2-2--2---2-2--2-----|--(2)-2-2----2----2-------2---0-o|
C|-------------------------|------------------------------0--|

   2.
                                 ~
   Q.    E +E   Q    E    +E   E Q  +Q    Q
D|---------------------|----------------------|
A|-5-----7-(7)s10---10-|-(10)S12S8--(8)s==3---|
F|---------------------|----------------------|
C|---------------------|----------------------|
G|---------------------|----------------------|
C|---------------------|----------------------|

  Q   Q    E   E E  E    +Q     Q   E  E E E
D|---------------------|----------------------|
A|---------------------|----------------------|
F|---------------------|----------------------|
C|-5---5----5---5-5--5-|--(5)----5---5--5-5-5-|
G|-3---3----3---3-3--3-|--(3)----3---3--3-3-3-|
C|---------------------|----------------------|

   TP
   Q.    E +E   Q    E        +Q     +Q    H
D|-------------------------|-----------------------|
A|-7-----8-(8)-10---13b15==|=(13)---(13)\----------|
F|-------------------------|-----------------------|
C|-------------------------|-----------------------|
G|-------------------------|-----------------------|
C|-------------------------|-----------------------|

  Q   Q    E   E E  E        +E  E   Q    E E E E
D|-------------------------|-----------------------|
A|-------------------------|-----------------------|
F|-------------------------|-----------------------|
C|-5---5----5---5-5--5-----|--(5)-5---5------------|
G|-2---2----2---2-2--2-----|--(2)-2---2----5-3-2-2-|
C|-------------------------|---------------------2-|

 [Verse 1]
 (Gtrs 1, 2)
                                                 PM--|
   +W           +W           +W           +H     E E E E
D|------------|------------|------------|----------------|
A|------------|------------|------------|----------------|
F|------------|------------|------------|----------------|
C|------------|------------|------------|----------------|
G|-(2)--------|-(2)--------|-(2)--------|-(2)----------0-|
C|-(2)--------|-(2)--------|-(2)--------|-(2)----5-4-3-0-|

 (Gtr 1)
   +W           +W                 E  E E  E  E  E  E  E    E E E E E E Q
D|------------|----------------|-------------------------|-------------------|
A|------------|----------------|-------------------------|-------------------|
F|------------|----------------|-/16-16---11-11-11-12-12-|-12-9-9-9-9-9-9/---|
C|------------|----------------|-------------------------|-------------------|
G|-(0)--------|-(0)------------|-/14-14----9--9--9-10-10-|-10-7-7-7-7-7-7/---|
C|-(0)--------|-(0)------------|--------0----------------|-------------------|

(Gtr 2)
                     PM----|
 +W           +H     E E E E     E  E E  E  E  E  E  E    E E E E E E E  E

D|------------|----------------|-------------------------|-------------------|
A|------------|----------------|-------------------------|-------------------|
F|------------|----------------|---5--5-5--5--5--5--5--5-|--7-7-7-7----------|
C|------------|----------------|-------------------------|-------------------|
G|-(0)--------|-(0)------------|---3--3-3--3--3--3--3--3-|--5-5-5-5-5-3-2--2-|
C|-(0)--------|-(0)----0-2-4-0-|-------------------------|-----------------2-|

     E   E E  E  E  E  E  E    E  E E E E E Q
D|--------------------------|-------------------|
A|--------------------------|-------------------|
F|-/16--16---11-11-11-12-12-|-12--9-9-9-9-9-9/--|
C|--------------------------|-------------------|
G|-/14--14----9--9--9-10-10-|-10--7-7-7-7-7-7/--|
C|---------0----------------|-------------------|

   +W                        +W
D|--------------------------|-------------------|
A|--------------------------|-------------------|
F|--------------------------|-------------------|
C|--------------------------|-------------------|
G|--(2)---------------------|-(2)---------------|
C|--(2)---------------------|-(2)---------------|

     E   E E  E  E  E  E  E    E  E E E E E Q
D|--------------------------|--------------------|
A|--------------------------|--------------------|
F|-/16--16---11-11-11-12-12-|-12--9-9-9-9-9-9/---|
C|--------------------------|--------------------|
G|-/14--14----9--9--9-10-10-|-10--7-7-7-7-7-7/---|
C|---------0----------------|--------------------|

                                       PM--|
   +W                        +H        E E E  E
D|--------------------------|--------------------|
A|--------------------------|--------------------|
F|--------------------------|--------------------|
C|--------------------------|--------------------|
G|--(2)---------------------|-(2)--------------0-|
C|--(2)---------------------|-(2)-------5-3-2--0-|

     E   E E  E  E  E  E  E    E  E E E E E Q
D|--------------------------|--------------------|
A|--------------------------|--------------------|
F|-/16--16---11-11-11-12-12-|-12--9-9-9-9-9-9/---|
C|--------------------------|--------------------|
G|-/14--14----9--9--9-10-10-|-10--7-7-7-7-7-7/---|
C|---------0----------------|--------------------|

                                      PM-----|
  +W                        +H        E E E  E

D|--------------------------|--------------------|
A|--------------------------|--------------------|
F|--------------------------|--------------------|
C|--------------------------|--------------------|
G|--(0)---------------------|-(0)----------------|
C|--(0)---------------------|-(0)-------0-2-4--0-|

     E  E E  E  Q    E  E   E   E  E  E  Q.   E
D|------------------------|---------------------|
A|------------------------|---------------------|
F|-/16-16---11-11---12-12-|---/17-17-17-16------|
C|------------------------|---------------------|
G|-/14-14----9--9---10-10-|---/15-15-15-14----x-|
C|--------0---------------|-0-----------------x-|

    E  E E  E  E E  E  E   E   E  E  E  H
D|------------------------|---------------------|
A|------------------------|---------------------|
F|---5--5-5--5--5-5--5--5-|-7---7--7--7--4------|
C|------------------------|---------------------|
G|---3--3-3--3--3-3--3--3-|-5---5--5--5--2------|
C|------------------------|---------------------|

 [Chorus]   
 (Gtr 3)
                                             PM|   PM|   PM--|   PM|
     E E E E E E E E    E  E E E E E E E   E E E E E E E E   E E E E E E E  E
D|--0-0-0-0-0-0-0-0-|--0--0-0-0-0-0-0-0-|-----------------|-------------------|
A|o-5-5-5-7-7-7-8-8-|--8--8-8-8-8-8-8-5-|-5-5-5-7-7-7-8-8-|-8-7-7-7-7-7-7--7--|
F|------------------|-------------------|-7-7-7-7-7-7-7-7-|-7-7-7-7-7-7-7--7--|
C|------------------|-------------------|-----------------|-------------------|
G|o-----------------|-------------------|-----------------|-------------------|
C|------------------|-------------------|-----------------|-------------------|

 (Gtrs 1, 2)
                                            PM|   PM|   PM--|   PM|
    Q   Q   E E E E   +E  E Q   E E E E   E E E E E E E E   E E E E E E Q
D|------------------|-------------------|-----------------|-------------------|
A|o-----------------|-------------------|-----------------|-------------------|
F|------------------|-------------------|-----------------|-------------------|
C|------------------|-------------------|-7-----7-----7---|---7-----7-7-7\----|
G|o-2---2---2-2-2-2-|-(2)-2-2---2-2-2-0-|-5-----5-----5---|---5-----5-5-5\----|
C|--2---2---2-2-2-2-|-(2)-2-2---2-2-2-0-|---0-0---0-0---0-|-0---0-0-----------|


   E E E E E E E E   E E E E E E E E
D|-0-0-0-0-0-0-0-0-|-0-0-0-0-0-0-0-0-|
A|-5-5-5-7-7-7-8-8-|-8-8-8-8-8-8-8-5-|
F|-----------------|-----------------|
C|-----------------|-----------------|
G|-----------------|-----------------|
C|-----------------|-----------------|

  Q   Q   E E E E   E E E E E E E E
D|-----------------|-----------------|
A|-----------------|-----------------|
F|-----------------|-----------------|
C|-5---5---5-5-5-5-|-5-5-5-5-5-5-5-5-|
G|-3---3---3-3-3-3-|-3-3-3-3-3-3-3-3-|
C|-----------------|-----------------|

 (To Coda)
   E E E E E E  E  E    E   E  E  E  E  E  E  E
D|-------------------|---------------------------|
A|-7-7-7-8-8-8-10-10-|-10--10-10-10-10-10-10-10-o|
F|-8-8-8-8-8-8--8--8-|--8---8--8--8--8--8--8--8--|
C|-------------------|---------------------------|
G|-------------------|--------------------------o|
C|-------------------|---------------------------|

                                    PM---|
 Q   E E E E  E  E   +E   E  Q     E  E  E  E

D|-------------------|---------------------------|
A|-------------------|--------------------------o|
F|-------------------|---------------------------|
C|-5---5-5-5-5--5--5-|-(5)--5--5-----------------|
G|-2---2-2-2-2--2--2-|-(2)--2--2-----5--3--2--2-o|
C|-------------------|------------------------2--|

[Verse 2]
(Gtrs 1, 2)
                                                 PM--|
   +W           +W           +W           +H     E E E E

D|------------|------------|------------|----------------|
A|------------|------------|------------|----------------|
F|------------|------------|------------|----------------|
C|------------|------------|------------|----------------|
G|-(2)--------|-(2)--------|-(2)--------|-(2)----------0-|
C|-(2)--------|-(2)--------|-(2)--------|-(2)----5-3-2-0-|

                      PM----|                             PM--|
  +W           +H     E E E E   E E E E E E E E   E E E E E E E E

D|------------|----------------|-----------------|-----------------|
A|------------|----------------|-----------------|-----------------|
F|------------|----------------|-5-5-5-5-5-5-5-5-|-5-5-5-5---------|
C|------------|----------------|-----------------|-----------------|
G|-(0)--------|-(0)------------|-3-3-3-3-3-3-3-3-|-3-3-3-3-5-3-2---|
C|-(0)--------|-(0)----0-2-4-0-|-----------------|---------------5-|

        PM--------------------|             PM--------------------------|
  +E  E E E E E E E   E E E E E E E E   +E  E E E E E E E   E E E E E E E E

D|-------------------|-----------------|-------------------|-----------------|
A|-------------------|-----------------|-------------------|-----------------|
F|-------------------|-----------------|-------------------|-----------------|
C|-------------------|-----------------|-------------------|-----------------|
G|-------2-2-2-2-2-2-|-2-2-2-2-2-------|-----2-2-2-2-2-2-2-|-2-2-2-2---------|
C|-(5)-2-2-2-2-2-2-2-|-2-2-2-2-2-5---5-|-(5)-2-2-2-2-2-2-2-|-2-2-2-2-5-3-2-2-|

(Gtr 1)
        PM------------------|
  +E  E E E E E E E   E E E E E E E E

D|-------------------|-----------------|
A|-------------------|-----------------|
F|-------------------|-----------------|
C|-------------------|-----------------|
G|-------0-0-0-0-0-0-|-0-0-0-0---------|
C|-(2)-0-0-0-0-0-0-0-|-0-0-0-0-0-2-4-0-|

(Gtr 2)
       PM------------------|
 +E  E E E E E E E   E E E E E E E E

D|-------------------|-----------------|
A|-------------------|-----------------|
F|-------------------|-----------------|
C|-------------------|-----------------|
G|-------0-0-0-0-0-0-|-0-0-0-0---------|
C|-(2)-0-0-0-0-0-0-0-|-0-0-0-0-0-2-4-0-|

   E E E  E  E  E   E  E    E  E  E  E  E  E  E  E
D|-----------------------|-------------------------|
A|-----------------------|-------------------------|
F|-9-9-9-11-11-11-/17-17-|-17-17-17-17-17-17-17-17-|
C|-----------------------|-------------------------|
G|-7-7-7--9--9--9-/15-15-|-15-15-15-15-15-15-15-15-|
C|-----------------------|-------------------------|

  E E E  E  E  E   E  E    E  E  E  E  E  E  E  E
D|-----------------------|-------------------------|
A|-----------------------|-------------------------|
F|-5-5-5--5--5--5---5s=9-|--9--9--9--9--9--9--9--9-|
C|-----------------------|-------------------------|
G|-3-3-3--3--3--3---3s=7-|--7--7--7--7--7--7--7--7-|
C|-----------------------|-------------------------|

[Bridge]
(Gtr 3)
     E E E E +E  E E E   +E   E  E  E +E   E  E  E
D|--7-----7-(7)-----7-|-(7)--------7-(7)--------7-|
A|o---8---------8-----|------8------------8-------|
F|------9---------9---|--------11-----------11----|
C|--------------------|---------------------------|
G|o-------------------|---------------------------|
C|--------------------|---------------------------|

(Gtr 2)
      E E E  E  E E E    E   E  E  E  E   E  E  E
D|--------------------|---------------------------|
A|o-------------------|---------------------------|
F|----9-9-9--9--9-9-9-|-11--11-11-11-11--11-11-11-|
C|--------------------|---------------------------|
G|o---7-7-7--7--7-7-7-|--9---9--9--9--9---9--9--9-|
C|--------------------|---------------------------|

(Gtr 1)
    E E E E  E  E E E    E   E  E  E  E   E  E  E
D|--------------------|---------------------------|
A|o-------------------|---------------------------|
F|--------------------|---------------------------|
C|--5-5-5-5--5--5-5-5-|--5---5--5--5--5---5--5--0-|
G|o-3-3-3-3--3--3-3-3-|--2---2--2--2--2---2--2--0-|
C|--------------------|---------------------------|

   +E   E  E  E +E   E  E  E    +E  E E  E  +E  E Q
D|-(7)--------7-(7)-------10-|-(10)-----10-(10)--------|
A|------8------------8-------|------8-----------8------|
F|---------9------------9----|--------7-----------9----|
C|---------------------------|-------------------------|
G|---------------------------|-------------------------|
C|---------------------------|-------------------------|

   E   E  E  E  E   E  E  E     E  E E  E   E  E E E
D|---------------------------|-------------------------|
A|---------------------------|-------------------------|
F|-12--12-12-12-12--12-12-12-|---7--7-7--7---7--7-7-7--|
C|---------------------------|-------------------------|
G|-10--10-10-10-10--10-10-10-|---5--5-5--5---5--5-5-5--|
C|---------------------------|-------------------------|

   E   E  E  E  E   E  E  E     E  E E  E   E  E E E
D|---------------------------|-------------------------|
A|---------------------------|-------------------------|
F|---------------------------|-------------------------|
C|---------------------------|-------------------------|
G|--2---2--2--2--2---2--2--2-|---5--5-5--5---5--5-5-5--|
C|--2---2--2--2--2---2--2--2-|---5--5-5--5---5--5-5-5--|

   1.
   E E E E +E  E E E   +E   E  E  E +E   E  q
D|-7-----7-(7)-----7-|-(7)--------7-(7)----------|
A|---8---------8-----|------8------------8-------|
F|-----9---------9---|--------11-----------11----|
C|-------------------|---------------------------|
G|-------------------|---------------------------|
C|-------------------|---------------------------|

  E E E E  E  E E E    E   E  E  E  E   E  E  E
D|-------------------|---------------------------|
A|-------------------|---------------------------|
F|-9-9-9-9--9--9-9-9-|-11--11-11-11-11--11-11-12-|
C|-------------------|---------------------------|
G|-7-7-7-7--7--7-7-7-|--9---9--9--9--9---9--9-10-|
C|-------------------|---------------------------|

                                           PM
  E E E E  E  E E E    E   E  E  E  E   E  E  E
D|-------------------|---------------------------|
A|-------------------|---------------------------|
F|-------------------|---------------------------|
C|-5-5-5-5--5--5-5-5-|--5---5--5--5--5---5-------|
G|-3-3-3-3--3--3-3-3-|--2---2--2--2--2---2-----1-|
C|-------------------|----------------------0--1-|

     W                         W
D|--------------------------|-----------------------|
A|--------------------------|----------------------o|
F|--------------------------|-----------------------|
C|--------------------------|-----------------------|
G|--------------------------|----------------------o|
C|--------------------------|-----------------------|

   +E   E E  E  +E   E E E   +E  E E E +E  E Q
D|--------------------------|-----------------------|
A|--------------------------|----------------------o|
F|-(12)-12---12-(12)-12---9-|-(9)-9---9-(9)-7-4/----|
C|--------------------------|-----------------------|
G|-(10)-10---10-(10)-10---7-|-(7)-7---7-(7)-5-2/---o|
C|--------------------------|-----------------------|

   +E   E E  E  +E   E E E   +E  E E E +E  E E  E
D|--------------------------|-----------------------|
A|--------------------------|----------------------o|
F|--------------------------|-----------------------|
C|--------------------------|-----------------------|
G|--(1)--1----1--(1)--1---2-|-(2)-2---2-(2)-2----0-o|
C|--(1)--1----1--(1)--1---2-|-(2)-2---2-(2)-2----0--|

   2.
   E E E E +E  E E E   +E   E  E  E +E   E   q
D|-7-----7-(7)-----7-|-(7)--------7-(7)----------|
A|---8---------8-----|------8------------8-------|
F|-----9---------9---|--------11------------11---|
C|-------------------|---------------------------|
G|-------------------|---------------------------|
C|-------------------|---------------------------|

  E E E E  E  E E E    E   E  E  E  E   Q     E
D|-------------------|---------------------------|
A|-------------------|---------------------------|
F|-9-9-9-9--9--9-9-9-|-11--11-11-11-11--11\----8-|
C|-------------------|---------------------------|
G|-7-7-7-7--7--7-7-7-|--9---9--9--9--9---9\----6-|
C|-------------------|---------------------------|

                                             PM
  E E E E  E  E E E    E   E  E  E  E   E   E E
D|-------------------|---------------------------|
A|-------------------|---------------------------|
F|-------------------|---------------------------|
C|-5-5-5-5--5--5-5-5-|--5---5--5--5--5---5-------|
G|-3-3-3-3--3--3-3-3-|--2---2--2--2--2---2-----1-|
C|-------------------|-----------------------0-1-|

    W                     W
D|---------------------|---------------------|
A|---------------------|---------------------|
F|---------------------|---------------------|
C|---------------------|---------------------|
G|---------------------|---------------------|
C|---------------------|---------------------|

  +E  E E E +E  E E E   +E  E E E +E  E E E
D|---------------------|---------------------|
A|---------------------|---------------------|
F|-(8)-8---8-(8)-8---9-|-(9)-9---9-(9)-9---8-|
C|---------------------|---------------------|
G|-(6)-6---6-(6)-6---7-|-(7)-7---7-(7)-7---6-|
C|---------------------|---------------------|

  +E  E E E +E  E E E   +E  E E E +E  E E E
D|---------------------|---------------------|
A|---------------------|---------------------|
F|---------------------|---------------------|
C|---------------------|---------------------|
G|-(1)-1---1-(1)-1---2-|-(2)-2---2-(2)-2---1-|
C|-(1)-1---1-(1)-1---2-|-(2)-2---2-(2)-2---1-|

(Gtr 2)               (Gtr 4)
   +E  E E E +E  E E E   Q   E   E   H
D|---------------------|----<7>------------|
A|---------------------|--------<7>--------|
F|-(8)-8---8-(8)-8---9-|------------<5>----|
C|---------------------|-------------------|
G|-(6)-6---6-(6)-6---7-|-------------------|
C|---------------------|-------------------|

(Gtr 1)
  +E  E E E +E  E E E   W
D|---------------------|-------------------|
A|---------------------|-------------------|
F|---------------------|-------------------|
C|---------------------|-------------------|
G|-(1)-1---1-(1)-1-1-2-|-------------------|
C|-(1)-1---1-(1)-1-1-2-|-------------------|

[Solo]
                                 ~~~
    H.               +E   +E     H.            E  E
D|-12-------------------------|---------------------|
A|-15b17============(15)r(15)-|-12------------12-13-|
F|----------------------------|---------------------|
C|----------------------------|---------------------|
G|----------------------------|---------------------|
C|----------------------------|---------------------|

(Gtrs 1, 2)
   E     E E E E E   E    E     E  E E E E E  E  E
D|----------------------------|---------------------|
A|----------------------------|---------------------|
F|----------------------------|---------------------|
C|--5-----5-5-5-5-5---5----5--|--5--5-5-5-5-5--5----|
G|--3-----3-3-3-3-3---3----3--|--3--3-3-3-3-3--3--0-|
C|----------------------------|-------------------0-|

    S S S  S S S  S S  S S S  S S S  S S
D|-12-0-0--------------------------------|
A|--------12-0-0-------------------------|
F|---------------12-0-11-0-0-12-0-0-11-0-|
C|---------------------------------------|
G|---------------------------------------|
C|---------------------------------------|

   Q        Q         E   E    E    E
D|---------------------------------------|
A|---------------------------------------|
F|---------------------------------------|
C|---------------------------------------|
G|--2--------2---------2---2----2----2---|
C|--2--------2---------2---2----2----2---|

            ~~~
    Q  Q    Q    +E  E   E S S E S S E S S  E S S
D|---------------------|-----5s7---------8s10------|
A|---------------------|---3-----5-----7------8----|
F|-/9--8S==[4]---(4)s0-|-2---------4-5----------7--|
C|---------------------|---------------------------|
G|---------------------|---------------------------|
C|---------------------|---------------------------|

   Q  E E  E  E  E  E   E E   E E   E E    E E
D|---------------------|---------------------------|
A|---------------------|---------------------------|
F|---------------------|---------------------------|
C|---------------------|-5-5---5-5---5-5----5-5----|
G|--2--2-2--2--2--2--0-|-3-3---3-3---3-3----3-3----|
C|--2--2-2--2--2--2--0-|---------------------------|

   E S  S  E  S S E  S  S  E   E
D|-----10s12-----------12s15-/11-|
A|---8-------10-----10-----------|
F|-7------------9-9--------------|
C|-------------------------------|
G|-------------------------------|
C|-------------------------------|

                          PM
  E E     E  E   E  E     E   E
D|-------------------------------|
A|-------------------------------|
F|-------------------------------|
C|-5-5-----5--5---5--5-----------|
G|-3-3-----3--3---3--3-----0---1-|
C|-------------------------0---1-|

(Gtr 3)
                                               ~~~
    +E   E  E   E  +E   E E  E    +E   E  E E +Q    +E    E
D|-(11)-11\---/11-(11)-11---12-|-(12)-12-10s7-(7)---(7)\-h5-|
A|-----------------------------|----------------------------|
F|-----------------------------|----------------------------|
C|-----------------------------|----------------------------|
G|-----------------------------|----------------------------|
C|-----------------------------|----------------------------|

   +E   E  E   E  +E   E E  E    +E   E  E E +E  E  E    E
D|-----------------------------|----------------------------|
A|-----------------------------|----------------------------|
F|-----------------------------|----------------------------|
C|-----------------------------|----------------------------|
G|--(1)--1------1--(1)--1----2-|--(2)--2----2-(2)-2--2----0-|
C|--(1)--1------1--(1)--1----2-|--(2)--2----2-(2)-2--2----0-|

[Solo]
(Gtr 3)
    T        T        T            T
    S S S S  S S S S  S S S S S S  S S
D|-12p5h7h8-12p8p7p5-------------------|
A|-------------------12p8p7p5h7h8-10p8p|
F|-------------------------------------|
C|-------------------------------------|
G|-------------------------------------|
C|-------------------------------------|

(Gtrs 1, 2)
   E   E    E   E    E   E   E    E
D|-------------------------------------|
A|-------------------------------------|
F|-------------------------------------|
C|--5---5----5---5----5---5---5----5---|
G|--3---3----3---3----3---3---3----3---|
C|-------------------------------------|

       T     T     T        T            PM     PM|
                            |-3-|
   S S S S S S S S S S S  S S S S E   Q  E  E E E E  E
D|----------------------------------|--------------------|
A|-7p5------------------------------|--------------------|
F|-----9p5h7-9p5h7------------------|---------------12---|
C|-----------------9p7p5------------|------10-9----------|
G|-----------------------h7-9p7p5p0-|----7------7-7------|
C|----------------------------------|--------------------|

  E   E   E   E   E   E    E     E   Q  Q    E E E  E
D|----------------------------------|--------------------|
A|----------------------------------|--------------------|
F|----------------------------------|--------------------|
C|-5---5---5---5---5---5----5-------|--------------------|
G|-3---3---3---3---3---3----3-----0-|-2--2----2-2-2--2---|
C|--------------------------------0-|-2--2----2-2-2--2---|

                         ~~~~
    +E   Q   E +E  Q     E     +E   S  S  S  S  S  S  S  S  S  S  S  S  S  S
D|--------------------------|---------12-15p12----12-17p12----12-15p12----12-|
A|--------------------------|------15----------15----------15----------15----|
F|-(12)-11---9-(9)----------|------------------------------------------------|
C|-----------------9---[10]-|-(10)-------------------------------------------|
G|--------------------------|------------------------------------------------|
C|--------------------------|------------------------------------------------|

    Q     E E  E  E E   E      E   E     E     E     E     E     E     E
D|--------------------------|------------------------------------------------|
A|--------------------------|------------------------------------------------|
F|--------------------------|------------------------------------------------|
C|--------------------------|---5---5-----5-----5-----5-----5-----5-----5----|
G|---2-----2-2--2--2-2---0--|---3---3-----3-----3-----3-----3-----3-----3----|
C|---2-----2-2--2--2-2---0--|------------------------------------------------|

                            ~~~~
    S  S  S  S  +E   E     +Q.       E
D|-17p12----12-(12)-17b19-(17)----------|
A|-------15------------------------[16]-|
F|--------------------------------------|
C|--------------------------------------|
G|--------------------------------------|
C|--------------------------------------|

                                PM
   E     E      E   E      E  E E   E
D|--------------------------------------|
A|--------------------------------------|
F|--------------------------------------|
C|--5-----5------5---5------5--5--------|
G|--3-----3------3---3------3--3-0---1--|
C|-------------------------------0---1--|
 
                                                 ~~~~
    +H          +Q.      E    +Q        +E   E  +Q     +Q
D|-------------------------|----------------------------------|
A|-(16)--------(16)-----19-|-(19)b20---(19)-17-(17)---(17)\---|
F|-------------------------|----------------------------------|
C|-------------------------|----------------------------------|
G|-------------------------|----------------------------------|
C|-------------------------|----------------------------------|

    E   E E E  +E  E E  E    +E     E   E   E  +E  E   E   E
D|-------------------------|----------------------------------|
A|-------------------------|----------------------------------|
F|-------------------------|----------------------------------|
C|-------------------------|----------------------------------|
G|---1---1---1--(1)-1----2-|--(2)----2-------2--(2)-2-------1-|
C|---1---1---1--(1)-1----2-|--(2)----2-------2--(2)-2-------1-|

                                  |-3-|
    S S S  S S S  S S  S   S S S  S S S  E       +W
D|-10-8-7--------10-8--7---------10-8-7-12----|-(12)----|
A|--------10-8-7----------10-8-7--------15b17-|-(15)----|
F|--------------------------------------------|---------|
C|--------------------------------------------|---------|
G|--------------------------------------------|---------|
C|--------------------------------------------|---------|

   E   E    E    E   +E     E    E      E        W
D|--------------------------------------------|---------|
A|--------------------------------------------|---------|
F|--------------------------------------------|---------|
C|--------------------------------------------|---------|
G|--1---1---------1---(1)----1----1------2----|---------|
C|--1---1---------1---(1)----1----1------2----|---------|

[Interlude]
(Gtr 3)
   E E E E E E E E    E  E E E E E E E    E  E E E E E E E    E  E E E E E E E
D|-0-0-0-0-0-0-0-0-|--0--0-0-0-0-0-0-0-|-------------------|-------------------|
A|-5-5-5-7-7-7-8-8-|--8--8-8-8-8-8-8-5-|--5--5-5-7-7-7-8-8-|--8--7-7-7-7-7-7-5-|
F|-----------------|-------------------|--7--7-7-7-7-7-7-7-|--7--7-7-7-7-7-7-5-|
C|-----------------|-------------------|-------------------|-------------------|
G|-----------------|-------------------|-------------------|-------------------|
C|-----------------|-------------------|-------------------|-------------------|

(Gtrs 1, 2)
   W                 +W                  +W                  +W
D|-----------------|-------------------|-------------------|-------------------|
A|-----------------|-------------------|-------------------|-------------------|
F|-----------------|-------------------|-------------------|-------------------|
C|-----------------|-------------------|-------------------|-------------------|
G|-2---------------|-(2)---------------|-(2)---------------|-(2)---------------|
C|-2---------------|-(2)---------------|-(2)---------------|-(2)---------------|

    E  E E E E E E E    E  E E E E E E E
D|--0--0-0-0-0-0-0-0-|--0--0-0-0-0-0-0-0-|
A|--5--5-5-7-7-7-8-8-|--8--8-8-8-8-8-8-5-|
F|-------------------|-------------------|
C|-------------------|-------------------|
G|-------------------|-------------------|
C|-------------------|-------------------|

  +W                  +W
D|-------------------|-------------------|
A|-------------------|-------------------|
F|-------------------|-------------------|
C|-------------------|-------------------|
G|-(2)---------------|-(2)---------------|
C|-(2)---------------|-(2)---------------|

    E  E E E E E  E  E    E   E  E  E  E  E  E  E
D|---------------------|--------------------------|
A|--7--7-7-8-8-8-10-10-|-10--10-10-10-10-10-10-10-|
F|--8--8-8-8-8-8--8--8-|--8---8--8--8--8--8--8--8-|
C|---------------------|--------------------------|
G|---------------------|--------------------------|
C|---------------------|--------------------------|

  +W                    +W
D|---------------------|--------------------------|
A|---------------------|--------------------------|
F|---------------------|--------------------------|
C|---------------------|--------------------------|
G|-(2)-----------------|-(2)----------------------|
C|-(2)-----------------|-(2)----------------------|

   E E E E E E E E   E E E E E E E E   E E E E E E E E   E E E E E E E E
D|-0-0-0-0-0-0-0-0-|-0-0-0-0-0-0-0-0-|-----------------|-----------------|
A|-5-5-5-7-7-7-8-8-|-8-8-8-8-8-8-8-5-|-5-5-5-7-7-7-8-8-|-8-7-7-7-7-7-7-5-|
F|-----------------|-----------------|-7-7-7-7-7-7-7-7-|-7-7-7-7-7-7-7-5-|
C|-----------------|-----------------|-----------------|-----------------|
G|-----------------|-----------------|-----------------|-----------------|
C|-----------------|-----------------|-----------------|-----------------|

    PM|   PM|   PM--|   PM|             PM|   PM|   PM--|   PM|
  E E E E E E E E   E E E E E E E E   E E E E E E E E   E E E E E E E E
D|-----------------|-----------------|-----------------|-----------------|
A|-----------------|-----------------|-----------------|-----------------|
F|-----------------|-----------------|-----------------|-----------------|
C|-----------------|-----------------|-----------------|-----------------|
G|-2-2-2-2-2-2-2-2-|-2-2-2-2-2-2-2-2-|-0-0-0-0-0-0-0-0-|-0-0-0-0-0-0-0-0-|
C|-2-2-2-2-2-2-2-2-|-2-2-2-2-2-2-2-2-|-0-0-0-0-0-0-0-0-|-0-0-0-0-0-0-0-0-|

(D.S. al Coda)
   E E E E E E E E   E E E E E E E E   E E E E E E  Q     +W
D|-0-0-0-0-0-0-0-0-|-0-0-0-0-0-0-0-0-|-----------------|-------------|
A|-5-5-5-7-7-7-8-8-|-8-8-8-8-8-8-8-5-|-7-7-7-8-8-8-10--|-(10)--------|
F|-----------------|-----------------|-8-8-8-8-8-8--8--|--(8)--------|
C|-----------------|-----------------|-----------------|-------------|
G|-----------------|-----------------|-----------------|-------------|
C|-----------------|-----------------|-----------------|-------------|

   E E E E E E E E   E E E E E E E E   W                  +W
D|-----------------|-----------------|-----------------|-------------|
A|-----------------|-----------------|-----------------|-------------|
F|-----------------|-----------------|-----------------|-------------|
C|-5-5-5-5-5-5-5-5-|-5-5-5-5-5-5-5-5-|-5---------------|--(5)--------|
G|-3-3-3-3-3-3-3-3-|-3-3-3-3-3-3-3-3-|-2---------------|--(2)--------|
C|-----------------|-----------------|-----------------|-------------|
  
    E  E  E  E H        W
D|--------------------|------*|
A|-10-10-10-10--------|------*|
F|--8--8--8--8--------|------*|
C|--------------------|------*|
G|--------------------|------*|
C|--------------------|------*|

              PM
   E  E  E  E E E Q    W
D|--------------------|------*|
A|--------------------|------*|
F|--------------------|------*|
C|--5--5--5--5--------|------*|
G|--2--2--2--2-5-3-2--|-2----*|
C|--------------------|-2----*|


************************************

| (n)  Ghost note
| /    Slide up
| h    Hammer-on
| p    Pull-off
| PM   Palm mute
| \    Slide down
| ~    Vibrato
| b    Bend
| tp   Tremolo picking
| x    Dead note
| [n]  Artificial harmonic (Pinch harmonic)
| *    Natural harmonic

************************************
Suggest correction
comments
print report bad tab
37 comments total. Showing first comments.
-1 reply
Atrius 10 Apr 10, 2006 05:02 PM

Guitar world?
******* you beat me to it.
Oh well i figured out pretty much the whole thing by myself anyways.

0 reply
pHaKe 997 Apr 11, 2006 08:55 PM

hehe, i was bored...

+1 reply
Guitarist_Kirk 10 Apr 16, 2006 03:31 PM

Nice Tab

guest
You may want to rate the tab now too:
select rating
Wanna post a correction for this tab? Suggest correction