Oops, an error
Loading. Please wait.

Exs And Ohs Bass Tab

version 3
version 3

Whole song

3,154 views 3 this week
no commentswrite comment
1 2 3 4 5
please rate
add to favorites
launch autoscroll
font size
0
reset
guitar tuner
Autoscroll
slow
fast
+/-
esc
set tempo
stop
Help us to improve Ultimate-Guitar.com Take our survey!
×
Author
Atreyu
Ex’s and Oh’s

Tuning (Low-High): C, G, C, F

Intro
|--------|--------|--------|--------|
|--------|--------|--------|--------|
|--------|--------|--------|--------|
|22222222|22222222|00000000|00000000|

|--------|--------|--------|--------|
|--------|--------|--------|--------|
|33333333|33333333|22222222|2222222-|
|--------|--------|--------|--------|

|--------|--------|--------|--------|
|--------|--------|--------|--------|
|--------|--------|--------|--------|
|22222222|22222222|00000000|00000000|

|--------|--------|--------|--------|
|--------|--------|--------|--------|
|33333333|33333333|22222222|2222~~--|
|--------|--------|--------|--------|

Verse 1
|--------|--------|--------|--------|
|--------|--------|--------|--------|
|--------|--------|--------|--------|
|22-222-2|22-222-2|00-222-2|22-255-5|

|--------|--------|--------|--------|
|--------|--------|--------|--------|
|--------|--------|33333333|33332222|
|00-000-0|00-000-0|--------|--------|

|--------|--------|--------|--------|
|--------|--------|--------|--------|
|--------|--------|--------|--------|
|22-222-2|22-222-2|00-222-2|22-255-5|

|--------|--------|--------|--------|
|--------|--------|--------|--------|
|--------|--------|33333333|33332222|
|00-000-0|00-000-0|--------|--------|

Chorus
|--------|--------|--------|--------|
|--------|--------|--------|--------|
|--------|--------|--------|--------|
|22222222|22222222|00000000|00000000|

|--------|--------|--------|--------|
|--------|--------|--------|--------|
|33333333|33333333|22222222|2222222-|
|--------|--------|--------|--------|

|--------|--------|--------|--------|
|--------|--------|--------|--------|
|--------|--------|--------|--------|
|22222222|22222222|00000000|00000000|

|--------|--------|--------|--------|
|--------|--------|--------|--------|
|33333333|33333333|22222222|2222----|
|--------|--------|--------|--------|

Verse 2
|--------|--------|--------|--------|
|--------|--------|--------|--------|
|--------|--------|--------|--------|
|22-222-2|22-222-2|00-222-2|22-255-5|

|--------|--------|--------|--------|
|--------|--------|--------|--------|
|--------|--------|33333333|3333532-|
|00-000-0|00-00000|--------|-------5|

|--------|--------|--------|--------|
|--------|--------|--------|--------|
|--------|--------|--------|--------|
|-2222222|222225-5|~2222222|22222420|

|--------|--------|--------|--------|
|--------|--------|--------|--------|
|--------|-------0|33333333|33333333|
|-0000000|0000000-|--------|--------|

Bridge
|--------|--------|--------|--------|
|--------|--------|--------|--------|
|33333333|2222222-|--------|-------0|
|--------|-------0|22222224|5555555-|

|--------|--------|--------|--------|
|--------|--------|--------|--------|
|33333333|2222333-|--------|--------|
|--------|-------1|-1-1-1-2|-2-2-200|

|--------|--------|--------|--------|
|--------|--------|--------|--------|
|33333333|2222222-|--------|-------0|
|--------|-------0|22222224|5555555-|

|--------|--------|--------|--------|--------|--------|
|--------|--------|--------|--------|--------|--------|
|33333333|2222333-|--------|--------|--------|--------|
|--------|-------1|-1-1-1-2|-2-2-2-1|-1-1-1-2|--------|

Guitar Solo 1
|--------|--------|--------|--------|--------|
|--------|--------|--------|--------|--------|
|33333333|33333333|--------|--------|33333333|
|--------|--------|22222222|22222222|--------|

|--------|--------|--------|
|--------|--------|--------|
|3333333-|--------|--------|
|-------1|-1-1-1-2|-2-2-220|

Guitar Solo 2
|--------|--------|--------|--------|--------|--------|
|--------|--------|--------|--------|--------|--------|
|33333333|33333333|--------|--------|33333333|3333333-|
|--------|--------|22222222|22222222|--------|-------1|

Interlude
|--------|--------|--------|--------|--------|--------|--------|--------|
|--------|--------|--------|--------|--------|--------|--------|--------|
|--------|--------|--------|--------|--------|--------|--------|--------|
|2~~~~~~~|~~~~~~~~|~~~~~~~~|~~~~~~~~|~~~~~~~~|~~~~~~~~|~~~~~~~~|~~~~~~~~|

|--------|--------|--------|--------|--------|--------|--------|--------|
|--------|--------|--------|--------|--------|--------|--------|--------|
|--------|--------|--------|--------|33333333|33333333|2~~~~~~~|~~~~~~~~|
|22222222|22222222|20000000|00000000|--------|--------|--------|--------|

Chorus
|--------|--------|--------|--------|
|--------|--------|--------|--------|
|--------|--------|--------|--------|
|22222222|22222222|00000000|00000000|

|--------|--------|--------|
|--------|--------|--------|
|33333333|33333333|22222222|
|--------|--------|--------|

Outro
|--------|--------|
|--------|--------|
|2222~~~2|--------|
|--------|2~~~~~~~|

Suggest correction
What's this?
You can suggest a correction to this tab. Community and Mods will review your correction and vote to approve or reject it.
comments
We did not receive enough feedback on this tab! Please rate:
print report bad tab
1 2 3 4 5
guest
You may want to rate the tab now too:
select rating
Please do not post tabs as comments. Select "correction" instead!