Oops, an error
Loading. Please wait.

Exs And Ohs Tab

version 3
version 3

Whole song

5,232 views 6 this week
2 commentsread comments
1 2 3 4 5
accurate
x 5
add to favorites
launch autoscroll
font size
0
reset
how to read this tab
guitar tuner
Autoscroll
slow
fast
+/-
esc
set tempo
stop
Help us to improve Ultimate-Guitar.com Take our survey!
×
Author
Difficulty
---------------------------------------------------------------------------
                             Exs and Ohs - Atreyu
---------------------------------------------------------------------------
Tabbed by: Marshall
Email:Inuyasha_Freak_5126@hotmail.com

Tuning:Drop C

D|-------------------------------------------------------------------------|
A|-------------------------------------------------------------------------|
F|---9-9-9-11-11-11-11/12~~--9-x-x-11-x-x-12-x-x-11-x-x-11h12p11-----------|
C|--------------------------------------------------------------12h14------|
G|-------------------------------------------------------------------------|
C|-------------------------------------------------------------------------|

D|-------------------------------------------------------------------------|
A|-------------------------------------------------------------------------|
F|---9-9-9-11-11-11-11/14p12~-11-11-11-12-12-12-12/14~~--------------------|
C|-------------------------------------------------------------------------|
G|-------------------------------------------------------------------------|
C|-------------------------------------------------------------------------|

D|-------------------------------------------------------------------------|
A|-------------------------------------------------------------------------|
F|---9-9-9-11-11-11-11/12~~--9-x-x-11-x-x-12-x-x-11-x-x-11h12p11-----------|
C|--------------------------------------------------------------12h14------|
G|-------------------------------------------------------------------------|
C|-------------------------------------------------------------------------|

D|-------------------------------------------------------------------------|
A|-------------------------------------------------------------------------|
F|---9-9-9-11-11-11-11/14/16-12--11-11-11-12-12-12-19~---------------------|
C|-------------------------------------------------------------------------|
G|-------------------------------------------------------------------------|
C|-------------------------------------------------------------------------|



| /  slide up
| \  slide down
| h  hammer-on
| p  pull-off
| ~  vibrato
| +  harmonic
| x  Mute note
Suggest correction
comments
print report bad tab
2 comments total.
0 reply
FranKLynn 20 wrote on January 2 2008, 04:29 pm

If you're just gonna tab the intro, mark it intro.
But it's better than the others, I'll give you a 4.

0 reply
atreyunderworld 31 wrote on January 13 2008, 09:04 pm

haha thanks, but i thought if i marked it intro they wouldnt accept it:p
my first tab though :p

guest
You may want to rate the tab now too:
select rating
Wanna post a correction for this tab? Suggest correction