Oops, an error
Loading. Please wait.

Falling Down Tab

version 3
version 3

Whole song

Interactive

590 views 1 this week
no commentswrite comment
1 2 3 4 5
please rate
add to favorites
launch autoscroll
font size
0
reset
how to read this tab
guitar tuner
Autoscroll
slow
fast
+/-
esc
set tempo
stop
Help us to improve Ultimate-Guitar.com Take our survey!
×
Difficulty
Tuning
intermediate
C G C F A D
-------------------------------------------------------------------------------
                             Falling Down - Atreyu
-------------------------------------------------------------------------------
Email:lsm.ajones@yahoo.com

Tuning: Drop C

D|-------------------------------------17--------------------------------|
A|----10-----------------------------------16----------------------------|
F|----12b14-----17b19-----17b19r17p15------------------------------------|
C|-----------------------------------------------------------------------|
G|-----------------------------------------------------------------------|
C|-----------------------------------------------------------------------|

D|----20--19--17------17-------------------20----------------------------|
A|----------------20------20--20b22r20p18------17------------------------|
F|-----------------------------------------------------------------------|
C|-----------------------------------------------------------------------|
G|-----------------------------------------------------------------------|
C|-----------------------------------------------------------------------|

D|----5------------------------------------------------------------------|
A|-------5--8p7p5-----5--------------------------------------------------|
F|-----------------7-----7b9b7p5--7--5-----------------------------------|
C|--------------------------------------7--5-----------------------------|
G|--------------------------------------------7--5--5\3------------------|
C|-----------------------------------------------------------------------|

D|----15p13------17p15------19p17------20p17------20--19--17-------------|
A|-----------15---------17---------19---------20--------------20b22------|
F|-----------------------------------------------------------------------|
C|-----------------------------------------------------------------------|
G|-----------------------------------------------------------------------|
C|-----------------------------------------------------------------------|

D|-----------------------------------------------------------------------|
A|----17b19--------------------10--15p13p10---------10--15p13p10---------|
F|-------------10b12----12b14----------------12b14-----------------------|
C|-----------------------------------------------------------------------|
G|-----------------------------------------------------------------------|
C|-----------------------------------------------------------------------|

D|-----------------------------------------------------------------------|
A|-----------10--15p13p10------------------------------------------------|
F|----12b14----------------12b14-----------------------------------------|
C|-----------------------------------------------------------------------|
G|-----------------------------------------------------------------------|
C|-----------------------------------------------------------------------|

Sorry, that's all I know so far. I'll update this in a week or so when I figure out the 
rest. Until then you can keep practicing Dan's solo and this piece of Travis'.
************************************

| /   slide up
| \   slide down
| h   hammer-on
| p   pull-off
| ~   vibrato
| +   harmonic
| x   Mute note
| b   Bend
| pb  Pre-bend
| br  Bend release
| pbr Pre-bend release
| brb Bend release bend

************************************
Suggest correction
Give kudos to tab author, rate the tab!
1 2 3 4 5
comments
print report bad tab
guest
You may want to rate the tab now too:
select rating
Please do not post tabs as comments. Select "correction" instead!