Oops, an error
Loading. Please wait.

Her Portrait In Black tab

version 4
version 4
by Atreyu
21,459 views 1 this week
17 commentsread comments
1 2 3 4 5
x 18
add to favorites
×
Save as Personal and add changes to this tab that will be seen only by you. Learn more ›
×
You can save this tab as Personal to edit and correct it or add notes. All changes will be seen only by you. Learn more »
launch autoscroll
font size
0
reset
how to read this tab
guitar tuner
edit
Autoscroll
slow
fast
+/-
esc
set tempo
stop
Her Portrait In Black by: Atreyu

Tab by: Aaron Meredith

Drop C Tuning

~ = let ring/vibrato
/ = slide up
\ = slide down
> = whammy effect
h = hammer-on
p = pull-off
* = harmonic
. = palm-mute (pm)
b = bend
r = return bend


Intro:
|----------------------------------------------------------------|
|----------------------------------------------------------------|
|----------------------------------------------------------------|
|-(Feedback fades in~)---5*~~~~~~~~(more feedback)---------------|
|----------------------------------------------------------------|
|----------------------------------------------------12\\\\\\\\--|


Begins: (play all this x3)
|-------------------------------------------|
|-------------------------------------------|
|-------------------------------0-2---------|x2
|--------0--3--------0-2-3----3-----0-------| 
|--------------------------0----------------|
|---0-0--------0-0--------------------------|
 pm . .        . .

|----------------------------------------|
|----------------------------------------|
|--------0--3------0-2-3---3-2-0---------|
|------------------------0-------3-------| 
|----------------------------------------|
|---0-0--------0-0-----------------------|
 pm . .        . .

|----------------------------------------|
|----------------------------------------|
|--------0--3-------3-----------0--------|
|----------------------4--4-0-4----------| 
|----------------------------------------|
|---0-0--------0-0-----------------------|
 pm . .        . .



Then: Guitar 1
|--------------------|
|--------------------|
|--------------------|x2
|--------------------|
|--------------------|
|--0-00-0-0-000-000--|
 pm. .. . . ... ...

Then: Guitar 2
|--------------------|----------------------|
|--------------------|----------------------|
|--------------------|----------------------|
|--0~~~----0-2-3-0---|---3~~~--2~~~--(GT2)--|
|--0~~~--------------|---5~~~--4~~~--(GT1)--|
|--0~~~--------------|----------------------|


Cont: Guitar 1
|------------------------------------------------------------------------|
|------------------------------------------------------------------------|
|------------------------------------------------------------------------|x2
|------------------------------------------------------------------------|
|------------------------------------------------------------------------|
|--0-00-0-0-000-000-(x4)--8-88-8-8-888-888-(x2)--5-55-5-5-555-555--(x2)--|
 pm. .. . . ... ...       . .. . . ... ...       . .. . . ... ...

Cont: Guitar 2 
|---------------------------------------------------------------------|
|---------------------------------------------------------------------|
|-------------------------------------0-2---------------0-2-----------|x2
|---0-2-3-0-------0-2-3-0-----------3-----3-----------3-----3-2-------|
|-------------------------4-------------------------------------------|
|---------------------------------------------------------------------|


Before Chorus:
|------------------------------------------------------------|
|------------------------------------------------------------|
|-----------------101010~-101010~--12-12-12~-12-12-12-12~----|
|--5~-5~-5~-5~5~---8-8-8~--8-8-8~--10-10-10~-10-10-10-10~----|
|--5~-5~-5~-5~5~---8-8-8~--8-8-8~--10-10-10~-10-10-10-10~----|
|--5~-5~-5~-5~5~---8-8-8~--8-8-8~--10-10-10~-10-10-10-10~----|


Chorus: Guitar 1              
|----------------------------------------------------------------------|
|----------------------------------------------------------------------|
|----------------------------------------------------------------------|x4
|--8-8-8-8-8-8-8-8-8-8-8-8-8-8-8-8--0-0-0-0-0-0-0-0-0-0-0-0-0-0-0-0----|
|--8-8-8-8-8-8-8-8-8-8-8-8-8-8-8-8--0-0-0-0-0-0-0-0-0-0-0-0-0-0-0-0----|
|--8-8-8-8-8-8-8-8-8-8-8-8-8-8-8-8--0-0-0-0-0-0-0-0-0-0-0-0-0-0-0-0----|


Chorus: Guitar 2
|-------------------------------------------------------------------------|
|-------------------------------------------------------------------------|
|-/7-7-7-7-7-7-7-7-7-7-7-7-/9-9-9-9-/101010101010101010101010-/17-17-17-17|x2
|--x-x-x-x-x-x-x-x-x-x-x-x--x-x-x-x---x-x-x-x-x-x-x-x-x-x-x-x---x--x--x--x|
|-/5-5-5-5-5-5-5-5-5-5-5-5-/7-7-7-7--/8-8-8-8-8-8-8-8-8-8-8-8-/15-15-15-15|
|-------------------------------------------------------------------------|
                                                   
|--------------------------------------------------------------------------|
|--------------------------------------------------------------------------|
|/7-7-7-7-7-7-7-7-/9-9-9-9-/12121212-\101010101010101010101010-/17-17-17-17|
|-x-x-x-x-x-x-x-x--x-x-x-x---x-x-x-x---x-x-x-x-x-x-x-x-x-x-x-x---x--x--x--x|
|/5-5-5-5-5-5-5-5-/7-7-7-7-/10101010--\8-8-8-8-8-8-8-8-8-8-8-8-/15-15-15-15|
|--------------------------------------------------------------------------|

|------------------------------------------------------------------------|
|------------------------------------------------------------------------|
|-/7-7-7-7-7-7-7-7-7-7-7-7-/9-9-9-9-/10101010101010101010101010101010----|
|--x-x-x-x-x-x-x-x-x-x-x-x--x-x-x-x---x-x-x-x-x-x-x-x-x-x-x-x-x-x-x-x----|
|-/5-5-5-5-5-5-5-5-5-5-5-5-/7-7-7-7--/8-8-8-8-8-8-8-8-8-8-8-8-8-8-8-8----|
|------------------------------------------------------------------------|


Then: Guitar 1&2
|---------------------------------------------------------------------------|
|---------------------------------------------------------------------------|
|------------------------------------------------------------------7*(W-bar)|
|-1-0~-4-1~-11-00~-3-0-1-3-1-1-0~-4-1~-11-00~-3-0-1-3-0-4-4~-x-4-1----------|
|-1-0~-4-1~-11-00~-3-0-1-3-1-1-0~-4-1~-11-00~-3-0-1-3-0-4-4~-x-4-1----------|
|-1-0~-4-1~-11-00~-3-0-1-3-1-1-0~-4-1~-11-00~-3-0-1-3-0-4-4~-x-4-1----------|

|------------------------------------------------------------------------|
|------------------------------------------------------------------------|
|------------------------------------------------------------------------|
|-1-0~-4-1~-11-00~-3-0-1-3-1-1-0~-4-1~-11-00~-3-0-1-3-0-4-4~-4~--1~------|
|-1-0~-4-1~-11-00~-3-0-1-3-1-1-0~-4-1~-11-00~-3-0-1-3-0-4-4~-4~--1~------|
|-1-0~-4-1~-11-00~-3-0-1-3-1-1-0~-4-1~-11-00~-3-0-1-3-0-4-4~-4~--1~------|

|--------------------------------------------------------------------------|
|--------------------------------------------------------------------------|
|--------------------------------------------------------------------------|
|-1-0~-4-1~-11-00~-3-0-1-3-1-1-0~-4-1~-11-00~-3-0-1-3-0-4-4~-4~--1~--------|
|-1-0~-4-1~-11-00~-3-0-1-3-1-1-0~-4-1~-11-00~-3-0-1-3-0-4-4~-4~--1~--------|
|-1-0~-4-1~-11-00~-3-0-1-3-1-1-0~-4-1~-11-00~-3-0-1-3-0-4-4~-4~--1~--15\\\-|

|-------------------------------------------------------
|-------------------------------------------------------
|-------------------------------------------------------
|-1-0~-4-1~-11-00~-3-0-1-3-1-1-0~-4-1~-11-00~-3-0-1-3-0-
|-1-0~-4-1~-11-00~-3-0-1-3-1-1-0~-4-1~-11-00~-3-0-1-3-0-
|-1-0~-4-1~-11-00~-3-0-1-3-1-1-0~-4-1~-11-00~-3-0-1-3-0-

----------------------------------------|
----------------------------------------|
----------------------------------------|
444~-444~-111~-111~-444~-444~-777~-777~-|
444~-444~-111~-111~-444~-444~-777~-777~-|
444~-444~-111~-111~-444~-444~-777~-777~-|


REPEAT CHORUS:


Solo: Guitar 2   >=Whammy effect
|->15->17->18-->13->17---15-13-15---13-11-13---15-13-15---13-10-13~~\----|
|------------------------------------------------------------------------|
|-------------Guitar3=---18-17-18---16-14-16---18-17-18---20-18-20~~\----|
|-----------------------(^harmonizing guitar-played on high e string^)---|
|------------------------------------------------------------------------|
|------------------------------------------------------------------------|

|->15--->17->18--->20--->21~~~~~~~~~~~~----------------------------|
|------------------------(^slight bend^)---------------------------|
|------------------------------------------------------------------|
|------------------------------------------------------------------|
|------------------------------------------------------------------|
|------------------------------------------------------------------|

Solo: Guitar 1
|-----------------------------------------------------------|
|-----------------------------------------------------------|
|-----------------------------------------------------------|
|----5----------1----------8----------3----------4----------|
|----5-(x32)----1-(x32)----8-(x32)----3-(x16)----4-(x16)----|
|----5----------1----------8----------3----------4----------|


Then: Both Guitars ("She's Bleeding Out")
|------------------|--------------------------------------------|
|------------------|--------------------------------------------|
|------------------|--------------------------------------------|
|-1-0~-4-1~-11-00~-|3-0-1-3-11-0~-4-1~-11-00~-----3-0-1-3-1-----|
|-1-0~-4-1~-11-00~-|3-0-1-3-11-0~-4-1~-11-00~(x3)-3-0-1-3-1-----|
|-1-0~-4-1~-11-00~-|3-0-1-3-11-0~-4-1~-11-00~-----3-0-1-3-1-----|


Interlude:
|-----------8------------------------------8---------------|
|-11-11-11-11-11---10-10-10-10---11-11-11-11-11------10~---|
|-10-10-10----10----7--7--7--7---10-10-10----10------7~----|
|--8--8--8-----8----7--7--7--7----8--8--8-----8-----7~-----|
|--------------------------------------------------0~------|
|-------------------------------------------------0~-------|


Then: 
|------------------------------------------------------------------|
|------------------------------------------------------------------|
|---------------------------------5~--5~--5~--5~-------------------|
|-8~--8~--8~--8~--0~--0~--0~--0~--5~--5~--5~--5~--5~--5~--5~--5~---|
|-8~--8~--8~--8~--0~--0~--0~--0~--3~--3~--3~--3---5~--5~--5~--5~---|
|-8~--8~--8~--8~--0~--0~--0~--0~------------------5~--5~--5~--5~---|


REPEAT CHORUS: (x2)


End with:
|---------------|-------------------------------------------------|
|---------------|---10~~b~~~~r~~~~~~~~~~b~~~~~~~~~r~~~~~~~~~------|
|--7~~~~~~------|---(^^^^^--------with feedback--------^^^^)------|
|--x------------|-------------------------------------------------|
|--5~~~~~~------|-------------------------------------------------|
|---------------|-------------------------------------------------|




            
            
Suggest correction
Creating personal tab
Creating personal tab
You can edit any tab online and save it as your Personal.

You can edit, replace or remove any tab part or add personal notes – all changes will be seen only by you.

Personal tabs can be accessed anytime from any device, even offline.
Learn more »
comments
print report bad tab
17 comments total. Showing first comments.
0 reply
cortSP-3 56 Feb 25, 2006 11:06 AM

its good better than the others yeah it has lil mistakes but their not that big 'n its good u got all parts 'n fillss

0 reply
xeroinfinity 10 Mar 20, 2006 08:36 PM

this is the better tab then the rest, nice job

0 reply
suicideangel_2 157 Apr 09, 2006 02:01 PM

why does it say at the beginning play all this x3 then it says x2

guest
Wanna post a correction for this tab? Suggest correction