Oops, an error
Loading. Please wait.

Honor bass

version 1
version 1

Whole song

Interactive

by Atreyu
3,116 views 1 this week
1 commentread comment
1 2 3 4 5
x 3
add to favorites
×
Save as Personal and add changes to this tab that will be seen only by you. Learn more ›
×
You can save this tab as Personal to edit and correct it or add notes. All changes will be seen only by you. Learn more »
launch autoscroll
font size
0
reset
guitar tuner
edit
Autoscroll
slow
fast
+/-
esc
set tempo
stop
Drop C

preety much same as guitar..
good song though.



0:09
G|-------------------------------------------------------------------|
C|-------------------------------------------------------------------|
F|--------5---------------------------5-------5---------3------------|
C|--0-3-5---0-5-3-0-0-0-0-0-0-0-0-3-5---0-5-3---6-0-3-0---5----------|
              

G|-------------------------------------------------------------------|
C|-------------------------------------------------------------------|
F|--------5---------------------------5-------5----------------------|
C|--0-3-5---0-5-3-0-0-0-0-0-0-0-0-3-5---0-5-3---6--------------------|
                  
x2
G|-------------------------------------------------------------------|
C|-------------------------------------------------------------------|
F|-------------------------------------------------------------------|
C|--88888888-00000000-1010101010101010-55555555----------------------|

G|-------------------------------------------------------------------|
C|-------------------------------------------------------------------|
F|--------5---------------------------5-------5---------3------------|
C|--0-3-5---0-5-3-0-0-0-0-0-0-0-0-3-5---0-5-3---6-0-3-0---5----------|
                  

G|----------------------------------------------------------------|
C|----------------------------------------------------------------|
F|----------------------------------------------------------------|
C|--0-6-0-6-0-6-0-6--0-6-0-6-000-000-666-666-000-000-06-----------|


G|-------------------------------------------------------------------|
C|-------------------------------------------------------------------|
F|-------------------------------------------------------------------|
C|--88888888-00000000-1010101010101010-55555555----------------------|


G|-------------------------------------------------------------------|
C|-------------------------------------------------------------------|
F|-------------------------------------------------------------------|
C|--8888-10101010-888-888-101010-101010-121212-121212-151515-151515--|


G|-------------------------------------------------------------------|
C|-------------------------------------------------------------------|
F|-------------------------------------------------------------------|
C|--888-888-101010-101010-121212-121212-121212-1212-10-8-------------|

G|-------------------------------------------------------------------|
C|-------------------------------------------------------------------|
F|-------------------------------------------------------------------|
C|--888-888-101010-101010-121212-121212-12-777-777-888-888-888-888---|
                                                   


G|-------------------------------------------------------------------|
C|-------------------------------------------------------------------|
F|-------------------------------------------------------------------|
C|--777-777-777-777--------------------------------------------------|
    

G|-------------------------------------------------------------------|
C|-------------------------------------------------------------------|
F|--------5---------------------------5-------5---------3------------|
C|--0-3-5---0-5-3-0-0-0-0-0-0-0-0-3-5---0-5-3---6-0-3-0---5----------|
                 

G|-------------------------------------------------------------------|
C|-------------------------------------------------------------------|
F|-------------------------------------------------------------------|
C|--00000000-1010101010101010-55555555-888-888-101010-101010---------|

G|-------------------------------------------------------------------|
C|-------------------------------------------------------------------|
F|-------------------------------------------------------------------|
C|--121212-121212-151515-151515-888-888-101010-101010-121212-121212--|

G|-------------------------------------------------------------------|
C|-------------------------------------------------------------------|
F|-------------------------------------------------------------------|
C|--121212-0-888-888-101010-101010-121212-121212--777-777-888-777----|

G|-------------------------------------------------------------------|
C|-------------------------------------------------------------------|
F|--------5---------------------------5-------5---------3------------|
C|--0-3-5---0-5-3-0-0-0-0-0-0-0-0-3-5---0-5-3---6-0-3-0---5----------|
                 

G|-------------------------------------------------------------------|
C|-------------------------------------------------------------------|
F|--------5---------------------------5-------5----------------------|
C|--0-3-5---0-5-3-0-0-0-0-0-0-0-0-3-5---0-5-3---6--0000--------------|

            
            
Suggest correction
Creating personal tab
Creating personal tab
You can edit any tab online and save it as your Personal.

You can edit, replace or remove any tab part or add personal notes – all changes will be seen only by you.

Personal tabs can be accessed anytime from any device, even offline.
Learn more »
Give kudos to tab author, rate the tab!
1 2 3 4 5
comments
print report bad tab
1 comment total.
0 reply
jak_daniels 20 Nov 03, 2008 06:18 PM

those are 1 2's and not 12's right?

guest
You may want to rate the tab now too:
select rating
Wanna post a correction for this tab? Suggest correction