Oops, an error
Loading. Please wait.

Lip Gloss And Black solo tab

version 3
by Atreyu
7,349 views 3 this week
14 commentsread comments
1 2 3 4 5
x 16
add to favorites
×
Save as Personal and add changes to this tab that will be seen only by you. Learn more ›
×
You can save this tab as Personal to edit and correct it or add notes. All changes will be seen only by you. Learn more »
launch autoscroll
font size
0
reset
how to read this tab
guitar tuner
edit
Autoscroll
slow
fast
+/-
esc
set tempo
stop
Author
Difficulty
Song:Lip Gloss and Black
Artist:Atreyu
Album:Suicide Notes and Butterfly Kisses

e|-------------------------------------------------------------------------|
b|-------------------------------------------------------------------------|
g|9\12-15-13p12h13p12---------------------15---------13---------12---------|
d|--------------------13-------15-13-12-13---13-12-13---13-12-13---13-12-13|
a|----------------------15-13----------------------------------------------|
E|-------------------------------------------------------------------------|

e|------------------------------------------|
b|------------------------------------------|
g|------------15------13------12------------|
d|-15-13-12-13---13-12---13-12---13-12-13-15|
a|------------------------------------------|
E|------------------------------------------|

e|-------------------------------------------|
b|-------------------------------------------|
g|---------18---------16---------15----------|
d|-18-16-15---16-15-16---16-15-16---16-15-16-|
a|-------------------------------------------|
E|-------------------------------------------|

e|----------------------------------------|
b|----------------------------------------|
g|---------18------16------15-------------|
d|-18-16-15---16-15---16-15---16-15-16-18-|
a|----------------------------------------|
E|----------------------------------------|

e|--------------------------16---------15----------|
b|-16\18-16-15-16---16-15-16---16-15-16---16-15-16-|
g|---------------15--------------------------------|
d|-------------------------------------------------|
a|-------------------------------------------------|
E|-------------------------------------------------|

e|-----------------------16------15-------------|
b|-16\18-16-15-16---16-15---16-15---16-15-16-15~|
g|---------------15-----------------------------|
d|----------------------------------------------|
a|----------------------------------------------|
E|----------------------------------------------|

thats it! have fun and enjoy!
Suggest correction
Creating personal tab
Creating personal tab
You can edit any tab online and save it as your Personal.

You can edit, replace or remove any tab part or add personal notes – all changes will be seen only by you.

Personal tabs can be accessed anytime from any device, even offline.
Learn more »
comments
print report bad tab
14 comments total. Showing first comments.
0 reply
nightsk8er 15 Nov 29, 2005 09:22 AM

i think u did a great job on this one

0 reply
nightsk8er 15 Nov 29, 2005 09:23 AM

it sounds only a little off on the hammer ons and pull offs in the beginning and the last variation is just a little off but its a 5

0 reply
peepee182 267 Nov 29, 2005 10:27 AM

thx for the votes i appreciate it

guest
You may want to rate the tab now too:
select rating
Wanna post a correction for this tab? Suggest correction