Oops, an error
Loading. Please wait.

Lip Gloss And Black bass

version 3
version 3

Whole song

by Atreyu
552 views 1 this week
no commentswrite comment
1 2 3 4 5
2 more votes to show rating
add to favorites
×
Save as Personal and add changes to this tab that will be seen only by you. Learn more ›
×
You can save this tab as Personal to edit and correct it or add notes. All changes will be seen only by you. Learn more »
launch autoscroll
font size
0
reset
guitar tuner
edit
Autoscroll
slow
fast
+/-
esc
set tempo
stop
I'm Duncan! if you have any corrections or comments on this tab hit me up at duncan_bass@yahoo.com.au
i'm serious i want some feedback...
catch ya.
Tuning: Dropped C...(c,g,c,f)

Intro
After guitar intro plays through twice
(play with drums)
F|---------------------------------------------------------------------------|
C|---------------------------------------------------------------------------|
G|---------------------------------------------------------------------------|
C|-0--00-0-0--00-0-0--00-0-0-0--0-0-0-0-0-0----------------------------------|

Verse
F|---------------------------------------------------------------------------|
C|---------------------------------------------------------------------------|
G|----1~~------3-1~--------1~~------3-1~------1~~------3-1~------1~~-----3-1~|
C|0~~-----0~~---------0~~------0~~-------0~~------0~~-------0~~------0~~-----|

Chorus
F|---------------------------------------------------------------------------|
C|---------------------------------------------------------------------------|
G|-1~-11-1-1-1-3~-33-3-3-3-------1~-11-1-1-1-3~-33-3-3-3---------------------|
C|-------------------------0~~~--------------------------00000-00000---------|

F|---------------------------------------------------------------------------|
C|---------------------------------------------------------------------------|
G|-1~-11-1-1-1-3~-33-3-3-3-------1~-11-1-1-1-3~-33-3-3-3---------------------|
C|-------------------------0~~~--------------------------00000-00000---------|

Verse 2
F|---------------------------------------------------------------------------|
C|---------------------------------------------------------------------------|
G|-34-------3-1~-1--1---------3~-3--4~-4------3-1~-1--1----------------------|
C|-----0~-0------------3~-3-3------------0~-0-----------3~-3-3--3~-3-2~-2----|

F|---------------------------------------------------------------------------|
C|---------------------------------------------------------------------------|
G|------3-1~-1--1---------3~-3--4~-4--4--------------------------------------|
C|-0~-0-----------3~-3--3----------------------------------------------------|

Bridge(really long!)
F|---------------------------------------------------------------------------|
C|---------------------------------------------------------------------------|
G|---------------------------------------------------------------------------|
C|0-00-0-00-0-00-0-00-0-00-0-00-0-00-0-00-0-00-0-00-0-00-0-00----------------|
(drum roll)

Verse 3 (comes in after guitar riff twice)
F|---------------------------------------------------------------------------|
C|---------------------------------------------------------------------------|
G|----1~~------3-1~--------1~~------3-1~------1~~------3-1~------1~~-----3-1~|
C|0~~-----0~~---------0~~------0~~-------0~~------0~~-------0~~------0~~-----|

Bridge 2
F|---------------------------------------------------------------------------|
C|---------------------------------------------------------------------------|
G|---------------------------------------------------------------------------|
C|-0~-0--0-00-0-0--0-0--0-00-0-0--0~-0--0~-0--0-00-0-0--0-0--0-00-0-0--0~-0--|

F|---------------------------------------------------------------------------|
C|---------------------------------------------------------------------------|
G|---------------------------------------------------------------------------|
C|-0~-0--0-00-0-0--0-0--0-00-0-0--0~-0--0~-0--0-00-0-0--0-0--0-00-0-0--0~-0--|

F|---P----------S----------L----------T--------------------------------------|
C|-----I----------O------P---A------O---H------------------------------------|
G|-------A---O------L----------Y--N-------I---G------------------------------|
C|---------N----------O---------------------N--------------------------------|

Guitar Solo
F|----------------------------------------------------------------|
C|----------------------------------------------------------------|
G|-----1~~-3~~-3~-5~-----1~~-3~~~------1~~-3~~-3~-5-----1~~-3~~~--|
C|-0~~---------------0~~-----------0~~--------------0~~-----------|

End On
F|------------------------------------------------------------------------------------|
C|------------------------------------------------------------------------------------|
G|------------------------------------------------------------------------------------|
C|0~~~~~~-----------------------------------------------------------------------------|
~ = let ring

Well that was fun ey?
Suggest correction
Creating personal tab
Creating personal tab
You can edit any tab online and save it as your Personal.

You can edit, replace or remove any tab part or add personal notes – all changes will be seen only by you.

Personal tabs can be accessed anytime from any device, even offline.
Learn more »
Give kudos to tab author, rate the tab!
1 2 3 4 5
comments
print report bad tab
guest
You may want to rate the tab now too:
select rating
Wanna post a correction for this tab? Suggest correction