Oops, an error
Loading. Please wait.

Lonely bass

version 1
version 1

Whole song

Interactive

by Atreyu
49 views 1 this week
no commentswrite comment
1 2 3 4 5
x 3
add to favorites
×
Save as Personal and add changes to this tab that will be seen only by you. Learn more ›
×
You can save this tab as Personal to edit and correct it or add notes. All changes will be seen only by you. Learn more »
launch autoscroll
font size
0
reset
guitar tuner
edit
Autoscroll
slow
fast
+/-
esc
set tempo
stop
Intro for bass starts about 10 seconds into the song playing for lead and rhythm guitar. Hope this progression
is a lot more fun to play for the song

Intro: G|---------------------------------------------------------------------|
       D|---------------------------------------------------------------------|
       A|------------------2-22-22-22-22222-5-55-55-55-55555------------------|
       E|-0-00-00-00-00000-----------------------------------5-55-55-55-55555-|

Verse: G|---------------------------------------------------------------------|
       D|---------------------------------------------------------------------| X2
       A|------------------2-22-22-22-22222-5-55-55-55-55555------------------|
       E|-0-00-00-00-00000-----------------------------------5-55-55-55-55555-|

          Too unafraid of what's to come.

          I hit the ground and run.

          Not sure what's coming

          next and never looking back.

          Hollow nights to empty days

          something had to change

          Before it gets too 

          late and there's no turning back.

Pre-Chorus: G|-----------------------------------------------------------------|
            D|-----------------------------------------------------------------|
            A|-3-33333-333-333-5-55555-777-555-3-33333-333-333-3-33333-5-55555-|
            E|-----------------------------------------------------------------|

               One by one we fit and then we fall

               One by one we fit and then we fall.

Chorus: G|-----------------------------------------------------------------|
        D|-----------------------------------------------------------------|
        A|-------------------------------------------------3-33333-333-333-|
        E|-3-33333-333-333-2-22222-222-222-0-00000-000-000-----------------|

           Lonely, is this what we've become? 

           So lonely, fragile, and unloved?

        G|-----------------------------------------------------------------|
        D|-----------------------------------------------------------------|
        A|-------------------------------------------------3-33333-333-555-|
        E|-3-33333-555-777-2-22222-333-555-0-00000-333-222-----------------|

           Lost inside ourselves and blindly staring at the sun

           So lonely, is this what we've become?

Pre-Verse: G|---------------------------------------------------------------------|
           D|---------------------------------------------------------------------| X2
           A|------------------2-22-22-22-22222-5-55-55-55-55555------------------|
           E|-0-00-00-00-00000-----------------------------------5-55-55-55-55555-|

Verse: G|---------------------------------------------------------------------|
       D|---------------------------------------------------------------------| X2
       A|------------------2-22-22-22-22222-5-55-55-55-55555------------------|
       E|-0-00-00-00-00000-----------------------------------5-55-55-55-55555-|

          Line them up, they fall.

          Something to live for.

          Not sure who's coming next

          but never looking back.

          I want something more;

          Something to live for

          before it gets too late 

          and there's no turning back.

Pre-Chorus: G|-----------------------------------------------------------------|
            D|-----------------------------------------------------------------|
            A|-3-33333-333-333-5-55555-777-555-3-33333-333-333-3-33333-5-55555-|
            E|-----------------------------------------------------------------|

               One by one we fit and then we fall

               One by one we fit and then we fall.

Chorus: G|-----------------------------------------------------------------|
        D|-----------------------------------------------------------------|
        A|-------------------------------------------------3-33333-333-333-|
        E|-3-33333-333-333-2-22222-222-222-0-00000-000-000-----------------|

           Lonely, is this what we've become? 

           So lonely, fragile, and unloved?

        G|---------------------------------------------------------|
        D|---------------------------------------------------------|
        A|-------------------------------------------------3-3-3-5-|
        E|-3-33333-555-777-2-22222-333-555-0-00000-333-222---------|

           Lost inside ourselves and blindly staring at the sun

           So lonely, is this what we've become?

Solo: G|---------------------------------------------------------------------|
      D|---------------------------------------------------------------------| X2
      A|------------------2-22-22-22-22222-5-55-55-55-55555------------------|
      E|-0-00-00-00-00000-----------------------------------5-55-55-55-55555-|

Pre-Chorus: G|-----------------------------------------------------------------|
            D|-----------------------------------------------------------------|
            A|-3-33333-333-333-5-55555-777-555-3-33333-333-333-3-33333-5-55555-|
            E|-----------------------------------------------------------------|

               One by one we fit and then we fall

               One by one we fit and then we fall.

Chorus: G|-----------------------------------------------------------------|
        D|-----------------------------------------------------------------|
        A|-------------------------------------------------3-33333-333-333-|
        E|-3-33333-333-333-2-22222-222-222-0-00000-000-000-----------------|

           Lonely, is this what we've become? 

           So lonely, fragile, and unloved?

        G|---------------------------------------------------------|
        D|---------------------------------------------------------|
        A|-------------------------------------------------3-3-3-5-|
        E|-3-33333-555-777-2-22222-333-555-0-00000-333-222---------|

           Lost inside ourselves and blindly staring at the sun

           So lonely, is this what we've become?

Outro: G|-----------------------------------------------------------------|
       D|-----------------------------------------------------------------|
       A|-------------------------------------------------3-33333-333-333-|
       E|-3-33333-333-333-2-22222-222-222-0-00000-000-000-----------------|

           (Lonely!) is this what we've become?!? 

           So lonely, fragile, and unloved?!?

       G|------------------------------------------------------------------------------------|
       D|------------------------------------------------------------------------------------|
       A|-------------------------------------------------3-3-3-3-3-3-3-3-3-3-3-3-3-3-3-5----|
       E|-3-33333-555-777-2-22222-333-555-0-00000-333-222---------------------------------0~-|

           Lost inside ourselves and blindly staring at the sun

           So lonely, is this what we've become?!?

            
            
Suggest correction
Creating personal tab
Creating personal tab
You can edit any tab online and save it as your Personal.

You can edit, replace or remove any tab part or add personal notes – all changes will be seen only by you.

Personal tabs can be accessed anytime from any device, even offline.
Learn more »
Give kudos to tab author, rate the tab!
1 2 3 4 5
comments
print report bad tab
guest
You may want to rate the tab now too:
select rating
Wanna post a correction for this tab? Suggest correction